Paul McCartney

home > Paul McCartney

Sixty Second Street Bass Tab

Paul McCartney

Difficulty: nolevelnolevel

by jov%2Dcorrea

tuner correct add songbook print version text version save to e-mail
chordsukulelecavacokeyboardtabbassdrumsharmonicsflute Guitar Pro
chords

Sixty Second Street

  		
Verse 00:28 
G|---------------------------------|---------------------------------| 
D|---------------------------------|---------------------------------| 
A|0-------2-------3-------2---2----|0---0---2---2---3-------2---2----| 
E|---------------------------------|---------------------------------| 

G|---------------------------------|---------------------------------| 
D|---------------------------------|---------------------------------| 
A|0-------2-------3-------2---2----|0---0---2-------3-------2---2----| 
E|---------------------------------|---------------------------------| 

G|---------------------------------|---------------------------------| 
D|---------------------------------|---------------------------------| 
A|0---0---2-------3-------2---2----|0-------2-------3-----0-2--------| 
E|---------------------------------|----------------------------0----| 

Pre-Chorus 
G|---------------------------------|---------------------------------| 
D|---------------------------------|---------------------------------| 
A|3---3---1---1---0---0------------|---------------------------------| 
E|------------------------4---4----|3---3---1---1---0---0---3---3----| 

G|---------------------------------|---------------------------------| 
D|---------------------------------|---------------------------------| 
A|3---3---1---1---0---0------------|---------------------------------| 
E|------------------------4---4----|3---3---1---1---0---0---0---0----| 

G|---------------------------------|---------------------------------| 
D|---------------------------------|---------------------------------| 
A|0-------2-------3-------2---2----|0-------2-------3-------2---2----| 
E|---------------------------------|---------------------------------| 

Chorus 
G|---------------------------------|---------------------------------| 
D|---------------------------------|---------------------------------| 
A|---------------------------------|---------------------------------| 
E|1---1---0---0---3---3---3---3----|1---1---0---0---3---3---3---3----| 

G|---------------------------------|---------------------------------| 
D|---------------------------------|---------------------------------| 
A|---------------------------------|---------------------------------| 
E|1---1---0---0---3---3---3---3----|1-------1-------3---3---3---3----| 

Tempo change 

G|---------------------------------|---------------------------------| 
D|---------------------------------|---------------------------------| 
A|---------------------------------|---------------------------------| 
E|4-------4-------4-------4--------|3-------3-------3-------3--------| 

G|---------------------------------|---------------------------------| 
D|---------------------------------|---------------------------------| 
A|---------------------------------|------------------------2--------| 
E|4-------4-------4-------4--------|3-------3-------3-----------4----| 

G|---------------------------------|---------------------------------| 
D|---------------------------------|---------------------------------| 
A|---------------------------------|---------------------------------| 
E|--------4-------4-------4--------|3-------3-------3-------3--------| 

G|---------------------------------| 
D|---------------------------------| 
A|---------------------------------| 
E|4--------------------------------| 

Interlude tempo back to normal 
G|---------------------------------|---------------------------------| 
D|---------------------------------|---------------------------------| 
A|0-------2-------3-------2---2----|0-------2-------3---3---2--------| 
E|---------------------------------|----------------------------0----| 

Verse 
G|---------------------------------|---------------------------------| 
D|---------------------------------|---------------------------------| 
A|0-------2-------3-------2---2----|0-------2-------3-------2---2----| 
E|---------------------------------|---------------------------------| 

G|---------------------------------|---------------------------------| 
D|---------------------------------|---------------------------------| 
A|0-------2-------3-------2---2----|0-------2-------3-------2---2----| 
E|---------------------------------|---------------------------------| 

Pre-Chorus 
G|---------------------------------|---------------------------------| 
D|---------------------------------|---------------------------------| 
A|3---3---1---1---0---0------------|---------------------------------| 
E|------------------------4---4----|3---3---1---1---0---0---3---3----| 

G|---------------------------------|---------------------------------| 
D|---------------------------------|---------------------------------| 
A|3---3---1---1---0---0------------|---------------------------------| 
E|------------------------4---4----|3---3---1---1---0---0---0---0----| 

G|---------------------------------|---------------------------------| 
D|---------------------------------|---------------------------------| 
A|0-------2-------3-------2---2----|0-------2-------3-------2---2----| 
E|---------------------------------|---------------------------------| 

Chorus 
G|---------------------------------|---------------------------------| 
D|---------------------------------|---------------------------------| 
A|---------------------------------|---------------------------------| 
E|1---1---0---0---3---3---3---3----|1---1---0---0---3---3---3---3----| 

G|---------------------------------|---------------------------------| 
D|---------------------------------|---------------------------------| 
A|---------------------------------|---------------------------------| 
E|1---1---0---0---3---3---3---3----|1-------1-------3---3---3---3----| 

Tempo change 

G|---------------------------------|---------------------------------| 
D|---------------------------------|---------------------------------| 
A|---------------------------------|---------------------------------| 
E|4---4---4---4---4-------4--------|3-------3-------3-------3--------| 

G|---------------------------------|---------------------------------| 
D|---------------------------------|---------------------------------| 
A|---------------------------------|----------------5-------5--------| 
E|4-------4-------4-------4--------|3-------3-----------3-------4----| 

G|---------------------------------|---------------------------------| 
D|---------------------------------|---------------------------------| 
A|---------------------------------|---------------------------------| 
E|--------4-------4-------4--------|3-------3-------3-------3--------| 

G|---------------------------------| 
D|---------------------------------| 
A|---------------------------------| 
E|4--------------------------------| 

Interlude tempo back to normal 
G|---------------------------------|---------------------------------| 
D|---------------------------------|---------------------------------| 
A|0---0---2-------3-------2---2----|0-------2-------3-----0-2--------| 
E|---------------------------------|----------------------------0----| 

Verse 
G|---------------------------------|---------------------------------| 
D|---------------------------------|---------------------------------| 
A|0-------2-------3-------2---2----|0-------2-----0-3-------2---2----| 
E|---------------------------------|---------------------------------| 

G|---------------------------------|---------------------------------| 
D|---------------------------------|---------------------------------| 
A|0-------2-------3-------2---2----|0-------2-------3-----0-2--------| 
E|---------------------------------|----------------------------0----| 

Outro 
G|---------------------------------|---------------------------------| 
D|---------------------------------|---------------------------------| 
A|0---0---2---2---3-------2---2----|0---0---2---2---3-------2---2----| 
E|---------------------------------|---------------------------------| 

G|---------------------------------|---------------------------------| 
D|---------------------------------|---------------------------------| 
A|0-------2-------3-------2---2----|0-------2-------3-------2---2----| 
E|---------------------------------|---------------------------------| 

G|---------------------------------|---------------------------------| 
D|---------------------------------|---------------------------------| 
A|0-------2-------2----------------|---------------------------------| 
E|---------------------------------|---------------------------------| 
	  

Search Paypal
auto scroll beats size up size down change color hide chords drawings
tab show chords e-chords YouTube Clip e-chords hide all tabs e-chords go to top tab