Paul McCartney

home > Paul McCartney

She's My Baby Bass Tab

Paul McCartney

Difficulty: nolevelnolevel

by Sayuri+F

tuner correct add songbook print version text version save to e-mail
chordsukulelecavacokeyboardtabbassdrumsharmonicsflute Guitar Pro
chords

She's My Baby

  		  My baby       she    comes      out    at    night 
|---------------------------------------------------------------------------------------- 
|-----------------------------------------------------0------2-----3------------------ 
|---------------------------------3----------------------------------------------------- 
|---------------------------------------------------------------------------------------- 
 
  Take   me   by        surprise  she?s my baby 
|------------------------------------------------------------------------------ 
|---3-----2---1---0-------------------------------------------------------- 
|-----------------------------------------------------------------3----------- 
|----------------------------------------3------------------------------------ 
 
 
Like gravy, down to the last drop 
I keep mopping at up, yeah, she?s my baby 
 
 
       She?s my baby in the morning time when the sleep is in her eyes 
|-------------------------------------------------------------------------------------------------------------- 
|------------------------------------------------------------------------------------------------------------- 
|---3 / 7----------------------------------------------10---------------------------------------------3--- 
|------------------------------------------------------------------------------------------------------------- 
 
   And the world is waking up, she has a rythim 
|-------------------------------------------------------------------------- 
|-------------------------------------------------------------------------- 
|-------------------------------------------6----------------------------- 
|-------------------------------------------------------------------------- 
 
   Oh believe me I ain?t lie     she?s a woman 
|-------------------------------------------------------------------- 
|-------------------------------------------------------------------- 
|-------------5----------------------------------------------3------ 
|-----------------------------------------3-------------------------- 
 
	         she?s a baby in the evening time when the stars are in the sky 
|-------------------------------------------------------------------------------------------------------------------------------- 
|---------0?--2------3-------------------------------------------------6-------------------------------------------------- 
|---3-----------------------------------------------------------------------------------------------------------------------3--- 
|-------------------------------------------------------------------------------------------------------------------------------- 
 
   that?s the time she changes back into a kitten 
    oh believe me I ain?t lie 
|------------------------------------------------------------------------- 
|-------------------------------------0---2---3---4---5---------------- 
|-----------5------------------------------------------------------------- 
|--------------------------------------------------------------------3? 
 
Final 
|------------------------------------------------------------------------------ 
|----------0------2------3------2------1------0--------------------------- 
|----3----------------------------------------------------------------3------ 
|-------------------------------------------------------3-----3-------------- 
 
Transcribed and tabbed by Sayuri F 

	  

Full key step upFull key step up
Half key step upHalf key step up
Half key step downHalf key step down
Full key step downFull key step down
Search Paypal
auto scroll beats size up size down change color hide chords drawings
tab show chords e-chords YouTube Clip e-chords hide all tabs e-chords go to top tab