Paul McCartney

home > Paul McCartney

Night Out Bass Tab

Paul McCartney

Difficulty: nolevelnolevel

by adalgomes

tuner correct add songbook print version text version save to e-mail
chordsukulelecavacokeyboardtabbassdrumsharmonicsflute Guitar Pro
chords

Night Out

  		
Intro                         Change tempo here 
G|---------------------------------|---------------------------------| 
D|---------------------------------|---------------------------------| 
A|---------------------------------|---------------------------------| 
E|5-------5-------5-------5--------|5-------5-------5-------5--------| 

G|---------------------------------|---------------------------------| 
D|---------------------------------|---------------------------------| 
A|---------------------------------|---------------------------------| 
E|5-------5-------5-------5--------|5-------5-------5-------5---3----| 

G|---------------------------------|---------------------------------| 
D|---------------------------------|---------------------------------| 
A|---------------------------------|---------------------------------| 
E|----5---5---3---5-------5---3----|5-------5---3---5-------5---3----| 

G|---------------------------------|---------------------------------| 
D|---------------------------------|---------------------------------| 
A|---------------------------------|--------------------3------------| 
E|----5---5---3---5-------5---3----|5-------5---3---5-------5---3----| 

G|---------------------------------|---------------------------------| 
D|---------------------------------|---------------------------------| 
A|---------------------------------|--------------------3------------| 
E|----5---5---3---5-------5---3----|5---5---5---3---5-------5---3----| 

G|---------------------------------|---------------------------------| 
D|---------------------------------|---------------------------------| 
A|---------------------------------|---------------------------------| 
E|5-------5---3---5-------5---3----|5---5---5---3---5---5---5---6----| 

Chorus 
G|---------------------------------|---------------------------------| 
D|---------------------------------|---------------------------------| 
A|---------------------------------|---------------------------------| 
E|7---7---7---5---7-------7---7----|7---7---7---7---7---7---7---5----| 

G|---------------------------------|---------------------------------| 
D|---------------------------------|---------------------------------| 
A|---------------------------------|---------------------------------| 
E|7---7---7---5---7-------7---5----|7---7---7---5---7---7---7---5----| 

G|---------------------------------|---------------------------------| 
D|---------------------------------|---------------------------------| 
A|---------------------------------|---------------------------------| 
E|7---7---7---7---7---7---7---7----|7---7---7---7---7---7---7---7----| 

G|---------------------------------|---------------------------------| 
D|---------------------------------|---------------------------------| 
A|---------------------------------|---------------------------------| 
E|7---7---7---7---7---7---7---7----|7---7---6---5---4---3---2---1----| 

Solo 
G|---------------------------------|---------------------------------| 
D|---------------------------------|---------------------------------| 
A|---------------------------------|--------------------3------------| 
E|----5---5---3---5-------5---3----|5-------5---3---5-------5---3----| 

G|---------------------------------|---------------------------------| 
D|---------------------------------|---------------------------------| 
A|---------------------------------|---------------------------------| 
E|5--------------------------------|---------------------------------| 

Break (Guitar and drums solo) 

Chorus 
G|---------------------------------|---------------------------------| 
D|---------------------------------|---------------------------------| 
A|---------------------------------|---------------------------------| 
E|7---7---7---7---7---7---7---7----|7---7---7---7---7---7---5---6----| 

G|---------------------------------|---------------------------------| 
D|---------------------------------|---------------------------------| 
A|---------------------------------|---------------------------------| 
E|7---7---7---7---7---7---7---7----|7---7---7---7---7---7---5---6----| 

G|---------------------------------|---------------------------------| 
D|---------------------------------|---------------------------------| 
A|---------------------------------|---------------------------------| 
E|7---7---7---7---7---7---7---7----|7---7---7---7---7---7---5---6----| 

G|---------------------------------|---------------------------------| 
D|---------------------------------|---------------------------------| 
A|---------------------------------|---------------------------------| 
E|7---7---5---6---7---7---5---6----|7---7---6---5---4---3---2---1----| 

Solo 
G|---------------------------------|---------------------------------| 
D|---------------------------------|---------------------------------| 
A|---------------------------------|--------------------3------------| 
E|5---5---5---3---5-------5---3----|----5---5---3---5-------5---3----| 

G|---------------------------------|---------------------------------| 
D|---------------------------------|---------------------------------| 
A|---------------------------------|--------------------3------------| 
E|5-------5---3---5-------5---3----|----5---5---3---5-------5---3----| 

G|---------------------------------|---------------------------------| 
D|---------------------------------|---------------------------------| 
A|---------------------------------|---------------------------------| 
E|5-------5---3---5-------5---3----|5-------5---3---5-------5---3----| 

G|---------------------------------|---------------------------------| 
D|---------------------------------|---------------------------------| 
A|---------------------------------|---------------------------------| 
E|5---5---5---3---5-------5---3----|5---5---5---5---5---5---6---7----| 

Chorus 
G|---------------------------------|---------------------------------| 
D|---------------------------------|---------------------------------| 
A|---------------------------------|---------------------------------| 
E|----7---7---7---7---7---7---7----|7---7---7---7---7---7---7---7----| 

G|---------------------------------|---------------------------------| 
D|---------------------------------|---------------------------------| 
A|---------------------------------|---------------------------------| 
E|7---7---7---7---5---6---7---7----|5---6---7---7---7---7---7---7----| 

G|---------------------------------|---------------------------------| 
D|---------------------------------|---------------------------------| 
A|---------------------------------|---------------------------------| 
E|7---7---7---7---5---6---7---7----|7---7---7---7---5---6---7---7----| 

G|---------------------------------|---------------------------------| 
D|---------------------------------|---------------------------------| 
A|---------------------------------|---------------------------------| 
E|5---6---7---7---5---6---7---7----|7---7---6---5---4---3---2---1----| 

G|---------------------------------|---------------------------------| 
D|---------------------------------|---------------------------------| 
A|------------------------6---7----|8---9---7---6--------------------| 
E|7---7---7---7---7---7------------|----------------7---7---7---7----| 

G|---------------------------------|---------------------------------| 
D|----------------------------6----|7---8---9---9---6----------------| 
A|------------6---7---8---9--------|--------------------9---7---6----| 
E|7---7---7------------------------|---------------------------------| 

G|---------------------------------|---------------------------------| 
D|---------------------------------|---------------------------------| 
A|---------------------------------|----------------6---7---8---9----| 
E|7---7---7---7---5-h-7---7---7----|5-h-7---7---7--------------------| 

G|---------------------------------|---------------------------------| 
D|---------------------------------|---------------------------------| 
A|---------------------------------|---------------------------------| 
E|7---7-------5---7---7------------|7---7---6---5---4---3---2---1----| 

Outro 
G|---------------------------------|---------------------------------| 
D|---------------------------------|---------------------------------| 
A|---------------------------------|---------------------------------| 
E|5-------5-----------5---5---3----|5-----------5-------5-------1----| 

G|---------------------------------|---------------------------------| 
D|---------------------------------|---------------------------------| 
A|---------------------------------|---------------------------------| 
E|3h5-----5-------5-----------5----|5--------------------------------| 


*********************************************************************** 

h = Hammer on 

*********************************************************************** 
	  

Search Paypal
auto scroll beats size up size down change color hide chords drawings
tab show chords e-chords YouTube Clip e-chords hide all tabs e-chords go to top tab