Paul McCartney

home > Paul McCartney

I Want You To Fly Bass Tab

Paul McCartney

Difficulty: nolevelnolevel

by renejunior

tuner correct add songbook print version text version save to e-mail
chordsukulelecavacokeyboardtabbassdrumsharmonicsflute Guitar Pro
chords

I Want You To Fly

  		
Verse 
G|--------------------9-------7----|----------------------------7----| 
D|--------9------------------------|--------9-----------9------------| 
A|--------7------------------------|--------7------------------------| 
E|0--------------------------------|0--------------------------------| 

G|--------------------9-------7----|----------------------------7----| 
D|--------9------------------------|--------9-----------9------------| 
A|--------7------------------------|--------7------------------------| 
E|0--------------------------------|0--------------------------------| 

G|--------9-----------14------12---|--------------------14-----------| 
D|--------7------------------------|--------14--------------14*h14---|*12h14 
A|---------------------------------|12------12-----------------------| 
E|5--------------------------------|---------------------------------| 

G|--------------------9-------7----|---------------------------------| 
D|--------9------------------------|--------9---9---9---9---9--------| 
A|--------7------------------------|--------7---7---7---7---7---/----| 
E|0--------------------------------|0--------------------------------| 

Chorus 
G|---------------------------------|---------------------------------| 
D|---------------------------------|---------------------------------| 
A|---------------------------------|2---2---2---2---2---2---2---2----| 
E|3---3---3---3---3---3---3---3----|---------------------------------| 

G|---------------------------------|---------------------------------| 
D|---------------------------------|---------------------------------| 
A|0---0---0---0---0---0---0---0----|2--------------------------------| 
E|---------------------------------|---------------------------------| 

Verse 
G|---------------------------------|---------------------------------| 
D|---------------------------------|---------------------------------| 
A|--------5-------4----------------|7---7---5-------4----------------| 
E|0-----------------------7---0----|------------------------7--------| 

G|---------------------------------|---------------------------------| 
D|---------------------------------|---------------------------------| 
A|--------5-------4----------------|7---7---5-------4----------------| 
E|0-----------------------7---0----|------------------------7--------| 

G|---------------------------------|---------------------------------| 
D|------/-5-------4----------------|7---7---5-------4----------------| 
A|0-----------------------7---0----|------------------------7--------| 
E|---------------------------------|---------------------------------| 

G|---------------------------------|---------------------------------| 
D|---------------------------------|---------------------------------| 
A|--------5-------4----------------|7---7---5-------4----------------| 
E|0-----------------------7---0----|------------------------7--------| 

G|---------------------------------|---------------------------------| 
D|---------------------------------|---------------------------------| 
A|--------5-------4----------------|7---7---5-------4----------------| 
E|0-----------------------7---0----|------------------------7--------| 

G|---------------------------------|---------------------------------| 
D|---------------------------------|---------------------------------| 
A|--------5-------4----------------|7---7---5---4--------------------| 
E|0-----------------------7---0----|----------------7---5---4---\----| 

G|---------------------------------|---------------------------------| 
D|------/-5-------4----------------|----7---5-------4----------------| 
A|0-----------------------7---0----|0-----------------------7--------| 
E|---------------------------------|---------------------------------| 

G|---------------------------------|---------------------------------| 
D|---------------------------------|--------7---5--------------------| 
A|--------5-------4----------------|7---7-----------7---5------------| 
E|0-----------------------7-\-0----|------------------------7---5----| 

Chorus 
G|---------------------------------|---------------------------------| 
D|---------------------------------|---------------------------------| 
A|---------------------------------|---------------------------------| 
E|3---3---3---3---3---3---3---3-/--|7---7---7---7---7---7---7---7-\--| 

G|---------------------------------|---------------------------------| 
D|7---7---7---7---7---7---7---7----|---------------------------------| 
A|---------------------------------|2---2---2---2---2---2---2---2----| 
E|---------------------------------|---------------------------------| 

G|---------------------------------|---------------------------------| 
D|---------------------------------|---------------------------------| 
A|---------------------------------|2---2---2---2---2---2---2---2-\--| 
E|3---3---3---3---3---3---3---3----|---------------------------------| 

G|---------------------------------|---------------------------------| 
D|7---7---7---7---7---7---7---7----|---------------------------------| 
A|---------------------------------|---------------------------------| 
E|---------------------------------|7---7---7------------------------| 

Solo 
G|--------------------9------------|----------------------------7----| 
D|--------9-------------------9----|--------9-----------9------------| 
A|--------7------------------------|---------------------------------| 
E|0--------------------------------|0--------------------------------| 

G|------------------/-14----/-12---|----------------------------7----| 
D|--------9------------------------|--------9-----------9------------| 
A|--------7------------------------|--------7------------------------| 
E|0--------------------------------|0--------------------------------| 

Verse 
G|--------------------12------9----|--------------------7------------| 
D|--------9------------------------|--------9-------------------9----| 
A|--------7------------------------|--------7------------------------| 
E|0--------------------------------|0--------------------------------| 

G|--------------------12------9----|--------------------7------------| 
D|--------9------------------------|--------9-------------------9----| 
A|--------7------------------------|---------------------------------| 
E|0--------------------------------|0--------------------------------| 

G|--------------------14------12---|---------------------------------| 
D|---------------------------------|--------7-----------5------------| 
A|0-------12-----------------------|0--------------------------------| 
E|---------------------------------|----------------------------7----| 

G|--------------------12----/-14--/|14-/14-/12-----------------------| 
D|--------9------------------------|------------14--12-------------/-| 
A|--------7------------------------|--------------------14--12--\----| 
E|0--------------------------------|---------------------------------| 

Solo 
G|---------------------------------|---------------------------------| 
D|7-----/-7-----/-7-----/-7------/-|7-----/-7-----/-7-----/-7---5--/-| 
A|---------------------------------|---------------------------------| 
E|---------------------------------|---------------------------------| 

G|---------------------------------|---------------------------------| 
D|7-----/-7-----/-7-----/-7------/-|7-----/-7-----/-7-----/-7---6----| 
A|---------------------------------|---------------------------------| 
E|---------------------------------|---------------------------------| 

G|---------------------------------|---------------------------------| 
D|5-----/-5-----/-5-----/-5--------|----------------------------2----| 
A|-------------------------------/-|3-----/-3-----/-3-----/-3--------| 
E|---------------------------------|---------------------------------| 

G|---------------------------------|---------------------------------| 
D|3-----/-3-----/-3---2---0-------/|7---\-----------5----------------| 
A|----------------------------3----|--------7---------------7---\----| 
E|---------------------------------|---------------------------------| 

G|---------------------------------|---------------------------------| 
D|5---5-----------5---5------------|--------2-----/-5-------2--------| 
A|--------7---------------7--------|3---3----------------------------| 
E|---------------------------------|---------------------------------| 

G|---------------------------------|---------------------------------| 
D|3-----/-3-------3---2---0--------|---------------------------------| 
A|------------3---------------3----|0---0---3-----/-7----\--2--------| 
E|---------------------------------|---------------------------------| 

G|---------------------------------|---------------------------------| 
D|--------2-------5-------2--------|--------2-----/-5-------2--------| 
A|---------------------------------|3---3----------------------------| 
E|3---3----------------------------|---------------------------------| 

G|---------------------------------| 
D|---------------------------------| 
A|----------------3---5---3---0----| 
E|1---1-/-5------------------------| 

Bridge 
G|---------------------------------|---------------------------------| 
D|---------------------------------|5---5-----------5----------------| 
A|0---0---3-------7---0---3--------|--------7---7-----------7--------| 
E|---------------------------------|---------------------------------| 

G|---------------------------------|---------------------------------| 
D|--------2-------5-h-7---5--------|---------------------------------| 
A|3---3----------------------------|----------------3h5-3---3---3----| 
E|---------------------------------|1---1-/-5------------------------| 

G|---------------------------------|---------------------------------| 
D|---------------------------------|5---5-----------5-------5--------| 
A|0---0---3h5-7---10--7---10--10---|--------7---7-------7------------| 
E|---------------------------------|---------------------------------| 

G|---------------------------------|---------------------------------| 
D|--------2-------5---5---2--------|3---3----------------------------| 
A|3---3-----------------------3----|------/-5-------3-------0--------| 
E|---------------------------------|---------------------------------| 

G|---------------------------------|---------------------------------| 
D|----------------2----------------|5---5-----------5---5------------| 
A|0---0---3---------------3--------|--------7---------------7--------| 
E|---------------------------------|---------------------------------| 

G|---------------------------------|---------------------------------| 
D|--------2-------5-------2--------|3-------3-------3---2---0--------| 
A|3---3----------------------------|------------3---------------3----| 
E|---------------------------------|---------------------------------| 

G|---------------------------------|---------------------------------| 
D|----------------2---2------------|--------2-------5---5---2--------| 
A|0---0---3---------------3---3----|---------------------------------| 
E|---------------------------------|3---3----------------------------| 

G|---------------------------------|---------------------------------| 
D|--------2-------5-------2--------|---------------------------------| 
A|3---3----------------------------|----------------3---0---3--------| 
E|---------------------------------|1---1-/-5------------------------| 

G|---------------------------------|---------------------------------| 
D|----------------2----------------|--------2-------5-------2--------| 
A|0---0---3---------------3--------|---------------------------------| 
E|---------------------------------|3--------------------------------| 

G|---------------------------------|---------------------------------| 
D|--------2-------5-------2--------|3--------------------------------| 
A|3---3----------------------------|--------0-------3-------0--------| 
E|---------------------------------|---------------------------------| 

G|---------------------------------|---------------------------------| 
D|---------------------------------|--------2-------5-------2--------| 
A|0---0---3----/--7-------3---0----|---------------------------------| 
E|---------------------------------|3---3----------------------------| 

G|---------------------------------|---------------------------------| 
D|--------2-------5-------2--------|---------------------------------| 
A|3---3----------------------------|----------------3---5---3--------| 
E|---------------------------------|1---1-/-5------------------------| 

G|---------------------------------|---------------------------------| 
D|---------------------------------|---------------------------------| 
A|0---0---3----/--7-------3--------|--------3----/--7-------3--------| 
E|---------------------------------|3---3----------------------------| 

G|---------------------------------|---------------------------------| 
D|---------------------------------|---------------------------------| 
A|3---/---5---/---7-------5--------|--------3-----/-5-----/-3--------| 
E|---------------------------------|1---1----------------------------| 

G|---------------------------------|---------------------------------| 
D|---------------/2----------------|---------------------------------| 
A|0------/3--------------/3--------|--------3-------7-------3--------| 
E|---------------------------------|3--------------------------------| 

G|---------------------------------|---------------------------------| 
D|--------2-------5-------2--------|---------------------------------| 
A|3--------------------------------|--------0-------3-------0---0----| 
E|---------------------------------|1--------------------------------| 

G|---------------------------------|---------------------------------| 
D|----------------2----------------|---------------------------------| 
A|0-------3---------------3---0----|--------3-------5-----/-7-----\--| 
E|---------------------------------|3--------------------------------| 



****************************************** 

/ = Slide up 
\ = Slide down 
h = Hammer on 

****************************************** 
	  

Search Paypal
auto scroll beats size up size down change color hide chords drawings
tab show chords e-chords YouTube Clip e-chords hide all tabs e-chords go to top tab