Paul McCartney

home > Paul McCartney

Get On The Right Thing Bass Tab

Paul McCartney

Difficulty: nolevelnolevel

by aleffederico

tuner correct add songbook print version text version save to e-mail
chordsukulelecavacokeyboardtabbassdrumsharmonicsflute Guitar Pro
chords

Get On The Right Thing

  		Intro : 
G|---------------------------------|---------------------------------| 
D|---------------------------------|---------------------------------| 
A|----7-------7-------7-------7----|----7-------7-------7-------7----| 
E|0-------0-------0-------0--------|0-------0-------0-------0--------| 

G|---------------------------------|---------------------------------| 
D|---------------------------------|---------------------------------| 
A|----7-------7-------7-------7----|----7-------7-------7-------7----| 
E|0-------0-------0-------0--------|0-------0-------0-------0--------| 

G|---------------------------------|---------------------------------| 
D|---------------------------------|---------------------------------| 
A|----7-------7-------7-------7----|----7-------7-------7-------7----| 
E|0-------0-------0-------0--------|0-------0-------0-------0--------| 

G|---------------------------------|---------------------------------| 
D|---------------------------------|---------------------------------| 
A|----7-------7-------7-------7----|----7-------7-------7-------7----| 
E|0-------0-------0-------0--------|0-------0-------0-------0--------| 

G|---------------------------------|---------------------------------| 
D|---------------------------------|---------------------------------| 
A|----7-------7-------7-------7----|----7-------7-------7-------7----| 
E|0-------0-------0-------0--------|0-------0-------0-------0--------| 

G|---------------------------------|---------------------------------| 
D|---------------------------------|---------------------------------| 
A|----7-------7-------7-------7----|----7-------7-------7-------7----| 
E|0-------0-------0-------0--------|0-------0-------0-------0--------| 

G|---------------------------------| 
D|---------------------------------| 
A|----7-------7-------7-------7----| 
E|0-------0-------0-------0--------| 

verse 1 : 
G|---------------------------------|---------------------------------| 
D|---------------------------------|---------------------------------| 
A|----7-------7-------7-------7----|----7-------7-------7-------7----| 
E|0-------0-------0-------0--------|0-------0-------0-------0--------| 

G|---------------------------------|---------------------------------| 
D|---------------------------------|---------------------------------| 
A|----7-------7-------7-------7----|----------------0---2---3---4----| 
E|0-------0-------0-------0--------|0---2---3---4--------------------| 

G|---------------------------------|---------------------------------| 
D|---------------------------------|----------------------------4----| 
A|5---5---5---5---5---5---5/9-5----|------------------------4h7------| 
E|---------------------------------|3---3---3---3---3---3------------| 

G|----------------------------7----|---------------------------------| 
D|------------------------4h7------|---------------------------------| 
A|5---5---5---5---5---5------------|------------------------0---1----| 
E|---------------------------------|3---3-------3---3----------------| 

G|---------------------------------|---------------------------------| 
D|---------------------------------|9---9---9---9---9---9------------| 
A|2--------------------------------|---------------------------------| 
E|---------------------------------|------------------------5---6----| 

G|---------------------------------|---------------------------------| 
D|---------------------------------|---------------------------------| 
A|---------------------------------|---------------------------------| 
E|7--------------------------------|----------------------------7-\--| 

verse 2 : 
G|---------------------------------|---------------------------------| 
D|---------------------------------|---------------------------------| 
A|----7-------7-------7-------7----|----7-------7-------7-------7----| 
E|0-------0-------0-------0--------|0-------0-------0-------0--------| 

G|---------------------------------|---------------------------------| 
D|---------------------------------|---------------------------------| 
A|----7-------7-------7-------7----|----------------0---2---3---4----| 
E|0-------0-------0-------0--------|0---2---3---4--------------------| 

G|---------------------------------|---------------------------------| 
D|---------------------------------|----------------------------4----| 
A|5---5---5---5---5---5---5---5-\--|------------------------4h7------| 
E|---------------------------------|3---3---3---3---3---3------------| 

G|----------------------------7----|---------------------------------| 
D|------------------------4h7------|---------------------------------| 
A|5---5---5---5---5---5------------|------------------------0---1----| 
E|---------------------------------|3---3-------3---3----------------| 

G|---------------------------------|---------------------------------| 
D|---------------------------------|---------------------------------| 
A|2--------------------------------|---------------------------------| 
E|---------------------------------|------------------------6--------| 

G|---------------------------------|---------------------------------| 
D|---------------------------------|---------------------------------| 
A|---------------------------------|---------------------------------| 
E|7---------------7---7------------|--------------------7-------7-\--| 

Chorus : 
G|---------------------------------|---------------------------------| 
D|---------------------------------|------------4---7---4------------| 
A|------------4---7---4------------|----4---7---------------7---4-\--| 
E|0---4---7---------------7---4----|5--------------------------------| 

G|---------------------------------|---------------------------------| 
D|------------4---7---4------------|---------------------------------| 
A|----4---7---------------7---4----|------------4---7---4------------| 
E|5--------------------------------|0---4---7---------------7---4-\--| 

G|---------------------------------|---------------------------------| 
D|---------------------------------|------------4---7---4------------| 
A|------------4---7---4------------|----4---7---------------7---4-\--| 
E|0---4---7---------------7---4----|5--------------------------------| 

G|---------------------------------|---------------------------------| 
D|------------4---7---4------------|---------------------------------| 
A|----4---7---------------7---4----|------------4---7---4------------| 
E|5--------------------------------|0---4---7---------------7---4-\--| 

G|---------------------------------|---------------------------------| 
D|---------------------------------|---------------------------------| 
A|2--------------------------------|2--------------------------------| 
E|---------------------------------|---------------------------------| 

Interlude : 
G|---------------------------------|---------------------------------| 
D|---------------------------------|---------------------------------| 
A|----7-------7-------7-------7----|----7-------7-------7-------7----| 
E|0-------0-------0-------0--------|0-------0-------0-------0--------| 

G|---------------------------------|---------------------------------| 
D|---------------------------------|---------------------------------| 
A|----7-------7-------7-------7----|----------------0---2---3---4----| 
E|0-------0-------0-------0--------|0---2---3---4--------------------| 

G|---------------------------------|---------------------------------| 
D|---------------------------------|---------------------------------| 
A|5---5---5---5---5---5---5---5----|5---5---5---5---5---5---5---5----| 
E|---------------------------------|---------------------------------| 

G|---------------------------------|---------------------------------| 
D|---------------------------------|---------------------------------| 
A|7--------------------------------|---------------------------------| 
E|---------------------------------|---------------------------------| 

verse 3 : 
G|---------------------------------|---------------------------------| 
D|---------------------------------|---------------------------------| 
A|7---7---7---7---7---7---7---7----|7---7---7---7---7---7---7---7----| 
E|---------------------------------|---------------------------------| 

G|---------------------------------|---------------------------------| 
D|---------------------------------|---------------------------------| 
A|----7-------7-------7-------7----|----------------0---2---3---4----| 
E|0-------0-------0-------0--------|0---2---3---4--------------------| 

G|---------------------------------|---------------------------------| 
D|---------------------------------|----------------------------4----| 
A|5---5---5---5---5---5---5/9-5----|------------------------4h7------| 
E|---------------------------------|3---3---3---3---3---3------------| 

G|---------------------------------|---------------------------------| 
D|---------------------------------|----------------------------5----| 
A|5---5---5---5---5---5-------5----|------------------------4h7------| 
E|------------------------5h7------|3---3---3---3---3---3------------| 

G|---------------------------------|---------------------------------| 
D|---------------------------------|---------------------------------| 
A|---------------------------------|---------------------------------| 
E|7--------------------------------|------------------------6--------| 

G|---------------------------------|---------------------------------| 
D|---------------------------------|---------------------------------| 
A|---------------------------------|---------------------------------| 
E|7--------------------------------|----------------------------7-\--| 

Chorus : 
G|---------------------------------|---------------------------------| 
D|---------------------------------|------------4---7---4------------| 
A|------------4---7---4------------|----4---7---------------7---4-\--| 
E|0---4---7---------------7---4----|5--------------------------------| 

G|---------------------------------|---------------------------------| 
D|------------4---7---4------------|---------------------------------| 
A|----4---7---------------7---4----|------------4---7---4------------| 
E|5--------------------------------|0---4---7---------------7---4-\--| 

G|---------------------------------|---------------------------------| 
D|---------------------------------|------------4---7---4------------| 
A|------------4---7---4------------|----4---7---------------7---4-\--| 
E|0---4---7---------------7---4----|5--------------------------------| 

G|---------------------------------|---------------------------------| 
D|------------4---7---4------------|---------------------------------| 
A|----4---7---------------7---4----|------------4---7---4------------| 
E|5--------------------------------|0---4---7---------------7---4-\--| 

G|---------------------------------|---------------------------------| 
D|---------------------------------|---------------------------------| 
A|---------------------------------|---------------------------------| 
E|7-----------7---7----------------|7-----------7---7-------7--\-----| 

Interlude : 
G|---------------------------------|---------------------------------| 
D|---------------------------------|---------------------------------| 
A|----7-------7-------7-------7----|----7-------7-------7-------7----| 
E|0-------0-------0-------0--------|0-------0-------0-------0--------| 

G|---------------------------------|---------------------------------| 
D|---------------------------------|---------------------------------| 
A|----7-------7-------7-------7----|----------------0---2---3---4----| 
E|0-------0-------0-------0--------|0---2---3---4--------------------| 

G|---------------------------------|---------------------------------| 
D|---------------------------------|---------------------------------| 
A|5---5---5---5---5---5---5---5----|5---5---5---5---5---5---5---5----| 
E|---------------------------------|---------------------------------| 

G|---------------------------------|---------------------------------| 
D|---------------------------------|---------------------------------| 
A|7--------------------------------|---------------------------------| 
E|---------------------------------|0--------------------------------| 

Outro (repeat) : 
G|---------------------------------|---------------------------------| 
D|---------------------------------|------------4---7---4------------| 
A|------------4---7---4------------|----4---7---------------7---4-\--| 
E|0---4---7---------------7---4----|5--------------------------------| 

G|---------------------------------|---------------------------------| 
D|------------4---7---4------------|---------------------------------| 
A|----4---7---------------7---4----|------------4---7---4------------| 
E|5--------------------------------|0---4---7---------------7---4-\--| 


************************************ 

| /  Slide up 
| \  Slide down 
| h  Hammer on 

************************************ 
	  

Search Paypal
auto scroll beats size up size down change color hide chords drawings
tab show chords e-chords YouTube Clip e-chords hide all tabs e-chords go to top tab