Patrice Rushen

I Was Tired Of Being Alone

Patrice Rushen

bass

by  ALEFFEDERICO

save to print version add songbook text version e-mail correct tuner
chordsukulelecavacokeyboardtabbassdrumsharmonicaflute Guitar Pro
close

there isn't a video lesson for this song

chords

I Was Tired Of Being Alone

	  		
Intro 
G|-------------5--8--5--| 
D|-------5--8-----------| 
A|----------------------| 
E|----------------------| 

Chorus #1 (couple of times) 
G|----------------------|----------------------|----------------------|----------------------| 
D|----------------------|----------------------|----------------------|---------------5------| 
A|-3--3--1--1-----------|----------------------|----------------------|-3--5--5--------------| 
E|-------------4---4----|-x4-4--3--3--1---1----|-x1-1--3--3--4---4----|----------1h3----x-3--| 
   s  s  s  s  s   s      ss s  s  s  s   s      ss s  s  s  s   s      s  s  s   s   p s s 

Bridge 
G|----------------------|------------------------|----------------------|-----------3h5-x----| 
D|--------------5-------|------------------6p4---|--------------5-------|--------------------| 
A|-5--5-5---------------|-3--3--1--1-------------|-5--5-5---------------|-3--3-x1-3-------3--| 
E|---------1h3----x-3---|-------------4--4-----4-|---------1h3----x-3---|--------------------| 
   s  s  s  s   p s s     s  s  s  s  s  s  p  s   s  s s   s   p s s     s  s ss s  p  p s 


G|----------------------|------------------------|--------------7-7p5---|-------------------3---| 
D|--------------5-------|------------------------|----------------------|-------------5---------| 
A|-5--5-5---------------|-3--3--1--1-------------|-5---5--3-3h5---------|----------------1----1-| 
E|---------1h3----x-3---|-------------5--5--x5---|----------------------|-03--3---1h3-----------| 
   s  s s   s   p s s     s  s  s  s  s  s  ss     s   s  s  s  p  p      ss  s    s  p  s  p s 

 Chorus #1 (2x) 
G|----------------------|----------------------|----------------------|----------------------| 
D|----------------------|----------------------|----------------------|---------------5------| 
A|-3--3--1--1-----------|----------------------|----------------------|-3--5--5--------------| 
E|-------------4---4----|-x4-4--3--3--1---1----|-x1-1--3--3--4---4----|----------1h3----x-3--| 
   s  s  s  s  s   s      ss s  s  s  s   s      ss s  s  s  s   s      s  s  s   s   p s s 

  Chorus #2 (until the fade-out) 
G|----------------------|----------------------|----------------------|----------------------| 
D|----------------------|----------------------|----------------------|---------------6------| 
A|-4--4--2--2-----------|----------------------|----------------------|-4--6--6--------------| 
E|-------------5---5----|-x5-5--4--4--2---2----|-x2-2--4--4--5---5----|----------2h4----x-4--| 
   s  s  s  s  s   s      ss s  s  s  s   s      ss s  s  s  s   s      s  s  s   s   p s s 


 
		  

auto scroll beats size up size down change color hide chords drawings
tab show chords e-chords YouTube Clip e-chords hide all tabs e-chords go to top tab

share