Paramore

Crushcrushcrush Bass Tab

Paramore

Difficulty: ExpertExpert

by rodr%5Faeh

tuner correct add songbook print version text version save to e-mail
chordsukuleleukulelecavacokeyboardtabbassdrumsharmonicsflute Guitar Pro
close

there isn't a video lesson for this song

request
chords

Crushcrushcrush

Year: 2007 - Album: Riot!

  		Valerie L. 
e-mail: [email protected] 
Tuning: Standard 

UPDATED NOVEMBER 4TH 

Intro 
G|-------------| 
D|-------------| 
A|-222---------| 
E|-------------| 

Verse 
G|-----------------------------------------| 
D|-----------------------------------------| 
A|44444444----------22222222-44444-2---2---| 
E|---------00000000------------------4-----| x2 

verse 2 
G|--------------------------------------------------------------------------------| 
D|--------------------------------------------------------------------------------| 
A|--------4~--4-6-7-6-4-----------------------------------------------------------| 
E|5~--7~----------------7---5-5-5-5-7-7-7-7-9-9-9-9-7-99-7-999-97--55-55-5-444-4-4| 

Pre-Chorus "Crush..." 
G|---------------| 
D|---------------| 
A|-4~----4~------| 
E|---------------| 

Chorus 
G|-----------------------------------------------| 
D|-----------------------------------------------| 
A|-44-77--------44-7~--44-77---------------------| 
E|-------7~--55--------------7~--55555555-77777--| 

Pre-verse 
G|------------------------------------| 
D|------------------------------------| 
A|-4-4-4-2-2-2-2-2-4-4-4-2-2-2-444----| 
E|------------------------------------| 

Verse x2 
verse 2  x1 
Pre-chorus x1 
Chorus x1 

Bridge "rock and roll." 
G|-----------------| 
D|-----------------| 
A|-4--7------------| 
E|------7--55-5----| x4 

G|---------------------------------------------------------------| 
D|---------------------------------------------------------------| 
A|------------------------------------44-77----------------------| 
E|999-000-77777777-555-000-7777-8888--------7~--55555555-7777777-| 

Chorus x1 

Outro 
G|-------------------------------------------------------| 
D|-------------------------------------------------------| 
A|-------------------------------------------------------| 
E|99999999-88888888-77777797-66666666-55555555-77777777-9|
	  

Search Paypal
auto scroll beats size up size down change color hide chords drawings
tab show chords e-chords YouTube Clip e-chords hide all tabs e-chords go to top tab

share with facebook