OneRepublic

home > OneRepublic

If I Lose Myself Bass Tab

OneRepublic

Difficulty: nolevelnolevel

by robepoiel

tuner correct add songbook print version text version save to e-mail
chordsukulelecavacokeyboardtabbassdrumsharmonicsflute Guitar Pro
chords

If I Lose Myself

  		
Intro 
G|----------------------| 
D|----------------------| 
A|--2---------5---------| 
E|-------3---------5----| 

Verse 
G|----------------------| 
D|----------------------| 
A|--2---------5---------| 
E|-------3---------5----|(x3) 

Pre-Chorus 
G|----------------------| 
D|----------------------| 
A|--2---------5---------| 
E|-------3---------5----|(x2) 

Rest off song  
G|--------------------------------------| 
D|--------------------------------------| 
A|--2-2-2-2-----------5-5-5-5-----------| 
E|-----------3-3-3-3-----------5-5-5-5--| 
	  

Search Paypal
auto scroll beats size up size down change color hide chords drawings
tab show chords e-chords YouTube Clip e-chords hide all tabs e-chords go to top tab