Omni

Sincerely Yours

Omni

bass

by  JESSGOMES

save to print version add songbook text version e-mail correct tuner
chordsukulelecavacokeyboardtabbassdrumsharmonicaflute Guitar Pro
close

there isn't a video lesson for this song

chords

Sincerely Yours

	  		Intro 

G|---------------------------------------------------------------------------| 
D|-5-7-5-9-7-9---------------------------------------------------------------| 
A|-------------10-10--5-7-8-8--5-7-8-8---------------------------------------| 
E|---------------------------------------------------------------------------| 


Verse 

G|---------------------------------------------------------------------------| 
D|-5-7-5-9-7-9---------------------------------------------------------------| 
A|-------------10-10--5-7-8-8--5-7-8-8---------------------------------------| 
E|---------------------------------------------------------------------------| 


Chorus 

G|---------------------------------------------------------------------------| 
D|--9-7----------------9-7---------------------------------------------------| 
A|------10-7--5-5-5-5------10-7--5-5-5-5-------------------------------------| 
E|---------------------------------------------------------------------------| 


Bridge + Outro 

G|-------------7--7-7-11p9---------------------------------------------------| 
D|--7--7-7-7---7-------------------------------------------------------------| 
A|--7------------------------------------------------------------------------| 
E|---------------------------------------------------------------------------| 

    
Lyrics for this song have yet to be released. Please check back once the song has been released. 



************************************ 

| p  Pull-off 

************************************ 
		  

See also:

bass Deep Purple - Burn (ver. 2) bass Deep Purple - Smoke On The Water (ver. 3) bass Deep Purple - Strange kind of woman bass Deep Purple - Into The Fire bass Deep Purple - Burn Ver.(2) bass Deep Purple - Smoke On The Water
e-chords

Other versions:

bass Omni - Sincerely Yours
auto scroll beats size up size down change color hide chords drawings
tab show chords e-chords YouTube Clip e-chords hide all tabs e-chords go to top tab

share