Norah Jones

home > Norah Jones

Come Away With Me Bass Tab

Norah Jones

Difficulty: BeginnerBeginner

by %2D+kepler+%2D

tuner correct add songbook print version text version save to e-mail
chordsukulelecavacokeyboardtabbassdrumsharmonicsflute Guitar Pro
chords

Come Away With Me

Year: 2002 - Album: Come Away with Me

  		Intro: 
G|--------------------------------------------------| 
D|--------------------------------------------------| 
A|--3-----0-----3-----0-----3-----0-----3-----0-----| 
E|--------------------------------------------------| 
 
Verse 1: 
G|--------------------------------------------------------------| 
D|--------------------------------------------------------------| 
A|--3-----0-----3-----0-----3-----0-----------------3-----0-----| 
E|--------------------------------------0-----1-----------------| 
       |come away)	       |come    |write|you a|song 
 
 
G|--------------------------------------------------------------| 
D|--------------------------------------------------------------| 
A|--3-----0-----3-----0-----3-----0-----------------3-----3--3--| 
E|--------------------------------------0-----1-----------------| 
       |come away)	                |tempt|us   |lies... 
 
 
Verse 2: 
G|-----------------------------------------------| 
D|-----------------------------------------------| 
A|--------------3-----3---3-------------3--------| 
E|--3-----3-----------------3-----3-----------3--| 
   |and I)        |on a cloudy day)    |knee-high) 
 
Verse 3: 
G|---------------------------------------------------------------| 
D|---------------------------------------------------------------| 
A|--3-----0-----3-----0-----3-----0---0-------------3---3-0------| 
E|---------------------------------------0-----1---1-------------| 
       |come away)    |mountain)        |I'll|stop  |you 
 
During Guitar Solo: 
G|--------------------------------------------------------------| 
D|--------------------------------------------------------------| 
A|--3-----0-----3-----0-----3-----0---0-------------3---3-0-----| 
E|---------------------------------------0---0-1---1------------| 
 
G|--------------------------------------------------------------| 
D|--------------------------------------------------------------| 
A|--3-----0-----3---3-0-----3-----0-----1-----3-----3-----3-----| 
E|--------------------------------------------------------------| 
 
Verse 4: 
G|------------------------------------------------| 
D|------------------------------------------------| 
A|--------------3-----3-----------------3---------| 
E|--3-----3-----------------3-----3-----------3---| 
  |and I)       |rain)         |while)  |arms) 
 
Final Verse: 
G|----------------------------------------------------------------| 
D|----------------------------------------------------------------| 
A|--3-----0-----3-----0-----3-----0-------------------3-----------| 
E|--------------------------------------0-------------------------| 
    you |come away)	                |awaaaay..with me 
 
 

	  

Search Paypal
auto scroll beats size up size down change color hide chords drawings
tab show chords e-chords YouTube Clip e-chords hide all tabs e-chords go to top tab