Nofx

home > Nofx

Pump Up The Valuum Bass Tab

Nofx

Difficulty: nolevelnolevel

by VsWorld

tuner correct add songbook print version text version save to e-mail
chordsukulelecavacokeyboardtabbassdrumsharmonicsflute Guitar Pro
chords

Pump Up The Valuum

  		
Intro 
                        do twice 
G|----------|-----------0-0-0-0---------0-0--------| 
D|----------|-2-2-0-2-0----------------------------| 
A|---3/7-7-7|-------------------3-3-3-3------------| 
E|-0--------|-------------------------------0-0-0-0| 

Melvin Verse 
G|-----------------------------------------------| 
D|2-2-2-0-2-0-------------------------0-0-0-0-0-0| 
A|------------3-3-3-3-3-3------------------------| 
E|------------------------3-3-3-3-3-3------------| 

G|-----------------------------------------------| 
D|2-2-2-0-2-0-------------5-5-5-5-5-5-0-0-0-0-0-0| 
A|------------3-3-3-3-3-3------------------------| 
E|-----------------------------------------------| 

Mike Verse 
G|------0-----2--2--0--0-----2--2--0| 
D|-2-------0--------------0---------| 
A|------3--5--0--0--2--3--5--0--0--3| 
E|---0------------------------------| 

Chorus 
      do twice            
G|---------2-2-2-2-0-0-0-0|------------------------| 
D|------------------------|------------------------| 
A|-0-0-0-0----------------|-3-3-3-3---------5-5-5-5| 
E|------------------------|---------3-3-3-3--------| 

Pre- Verse for 2nd verses 
                        do twice 
G|----------|-----------0-0-0-0--------------------| 
D|----------|-2-2-0-2-0----------------------------| 
A|---3/7-7-7|-------------------3-3-3-3------------| 
E|-0--------|---------------------------3-2-0-0-0-0| 

Outro 
G|------------0-0--| 
D|----------------2| 
A|-------3-3-------| 
E|-0---------------| 



************************************ 

| /  Slide up 

************************************ 
	  

Search Paypal
auto scroll beats size up size down change color hide chords drawings
tab show chords e-chords YouTube Clip e-chords hide all tabs e-chords go to top tab