Nofx

home > Nofx

I'm A Transvest-lite Bass Tab

Nofx

Difficulty: nolevelnolevel

by tercmoraes

tuner correct add songbook print version text version save to e-mail
chordsukulelecavacokeyboardtabbassdrumsharmonicsflute Guitar Pro
chords

I'm A Transvest-lite

  		Intro 
G|-----------------|-9-9-7-7-5-5-4-4-|-----4-4-5-5-7-7-|-9-9-7-7-5-5-4-4-|-----4-4-5-5-7-7-| 
D|-----------------|-----------------|-7-7-------------|-----------------|-7-7-------------| 
A|-----------------|-----------------|-----------------|-----------------|-----------------| 
E|-----------------|-----------------|-----------------|-----------------|-----------------| 

Verse 
G|-----------------|-----------------|-----------------|-----------------| 
D|-7-7-7-7-7-7-7-7-|-----------------|-7-7-7-7-7-7-7-7-|-5-5-5-5-5-5-5-5-| 
A|-----------------|-8-8-8-8-8-8-8-8-|-----------------|-----------------| 
E|-----------------|-----------------|-----------------|-----------------| 

G|-----------------|-----------------|-5-5-5-5-5-5-5-5-|-----------------| 
D|---------5-5-5-5-|-6-6-6-6-7-7-7-7-|-----------------|-5-5-5-5-5-5-5-5-| 
A|-8-8-8-8---------|-----------------|-----------------|-----------------| 
E|-----------------|-----------------|-----------------|-----------------| 

G|-----------------|-----------------|-----------------|-----------------| 
D|-----------------|-----------------|-----------------|-----------------| 
A|-----------------|-----------------|-----------------|-----------------| 
E|-5---5---5---\---|-----------------|-5---5---5---\---|-----------------| 

G|-----------------|-----------------|-----------------|-----------------|-----------------| 
D|---------5-5-5-5-|-6-6-6-6-7-7-7-7-|-3-3-3-3-3-3-3-3-|-5-5-5-5-5-5-5-5-|-5-5-5-5-5-5-5-5-| 
A|-8-8-8-8---------|-----------------|-----------------|-----------------|-----------------| 
E|-----------------|-----------------|-----------------|-----------------|-----------------| 

Chorus 
G|-----------------|-----------------|-----------------|-----------------| 
D|-----------------|-----------------|-----------------|-----------------| 
A|-3---3---3-3-3---|-2---2---2-2-2---|-----------------|-----------------| 
E|-----------------|-----------------|-5---5---5-5-5---|-2---2---2-2-2---| 

G|-----------------|-----------------|-----------------|-4---4---4-4-4-4-| 
D|-----------------|-----------------|-----------------|-----------------| 
A|-3---3---3-3-3---|-----------------|-5---5---5-5-5---|-----------------| 
E|-----------------|-3---3---3-3-3---|-----------------|-----------------| 

G|-----------------|-----------------|-----------------|-----------------| 
D|-----------------|-5---5---5-3-0-5-|-----------------|-----------------| 
A|-8---8---8-6---8-|-----------------|-3-3-3-3-0-0-0-0-|-1-1-1-1---------| 
E|-------------8---|-----------------|-----------------|---------3-3-3-3-| 

G|-----------------|-----------------|-7-5---5---------|-----------------| 
D|-----------------|-----------------|-----7-----7-5-7-|---5---5---7-5---| 
A|-----------------|-----------------|-----------------|-----7---------7-| 
E|-1-1-1-1-1-1-1-1-|-3-3-3-3-3-3-3-3-|-----------------|-----------------| 

G|-----------------|-----------------|-----------------|-----------------| 
D|-3-3-3-3-3-3-3-3-|-4r--------------|-----------------|-----------------| 
A|-----------------|-----------------|-----------------|-----------------| 
E|-----------------|-----------------|-----------------|-----------------| 

Verse 
G|-----------------|-----------------|-----------------|-----------------| 
D|-----------------|-----------------|-----------------|-----------------| 
A|-0-0-0-0-0-0-0-0-|-----------------|-0-0-0-0-0-0-0-0-|-----------------| 
E|-----------------|-1-1-1-1-1-1-1-1-|-----------------|-3-3-3-3-3-3-3-3-| 

G|-----------------|-----------------|-----------------|-----------------| 
D|-----------------|-----------------|-----------------|-----------------| 
A|-----------------|---------0-0-0-0-|-3-3-3-3-3-3-3-3-|-----------------| 
E|-1-1-1-1-3-3-3-3-|-4-4-4-4---------|-----------------|-3-3-3-3-3-3-3-3-| 

G|-----------------|-----------------|-----------------|-----------------| 
D|-----------------|-----------------|-----------------|-----------------| 
A|-0-0-0-0-0-0-0-0-|-----------------|-0-0-0-0-0-0-0-0-|-----------------| 
E|-----------------|-1-1-1-1-1-1-1-1-|-----------------|-3-3-3-3-3-3-3-3-| 

G|-----------------|-----------------|-----------------|-----------------|-----------------| 
D|-----------------|-----------------|-----------------|-----------------|-----------------| 
A|-----------------|---------0-0-0-0-|-3-3-3-3-3-3-3-3-|-----------------|-----------------| 
E|-1-1-1-1-3-3-3-3-|-4-4-4-4---------|-----------------|-3-3-3-3-3-3-3-3-|-3-3-3-3-3-3-3-3-| 

Chorus 
G|-----------------|-----------------|-----------------|-----------------| 
D|-----------------|-----------------|-----------------|-----------------| 
A|-3---3---3-3-3---|-2---2---2-2-2---|-----------------|-----------------| 
E|-----------------|-----------------|-5---5---5-5-5---|-2---2---2-2-2---| 

G|-----------------|-----------------|-----------------|-----------------| 
D|-----------------|-----------------|-----------------|-----------------| 
A|-3---3---3-3-3---|-----------------|-5---5---5-5-5---|-2---2---2-2-2-2-| 
E|-----------------|-3---3---3-3-3---|-----------------|-----------------| 

G|-5-5---5-7-5---5-|-----------------|-----------------|-----------------| 
D|-----7-------7---|-5-5-5-5-5-3-0-5-|-----------------|-----------------| 
A|-----------------|-----------------|-3-3-3-3-0-0-0-0-|-1-1-1-1---------| 
E|-----------------|-----------------|-----------------|---------3-3-3-3-| 

G|-----------------|-----------------|-----------------|-----------------| 
D|-----------------|-----------------|-----------------|-----------------| 
A|-----------------|-----------------|-----------------|-----------------| 
E|-1-1-1-1-1-1-1-1-|-3-3-3-3-3-3-3-3-|-4-4-4-4-4-4-4-4-|-5-5-5-5-5-5-5-5-| 

G|-----------------|-----------------|-7---5-7-10-5-7---|-----------------| 
D|-----------------|-----------------|---7------------7-|-(7)-7-7-7-7-7-7-| 
A|-----------------|-----------------|------------------|-----------------| 
E|-1-1-1-1-1-1-1-1-|-3-3-3-3-3-3-3-3-|------------------|-----------------| 

Outro 
G|-----------------|-----------------|-----------------|-----------------| 
D|-----------------|-----------------|-----------------|-----------------| 
A|-----------------|-----------------|-----------------|-----------------| 
E|-1-1-1-1-1-1-1-1-|-3-3-3-3-3-3-3-3-|-4-4-4-4-4-4-4-4-|-5-5-5-5-5-5-5-5-| 

G|-----------------|-----------------|-----------------|-----------------| 
D|-----------------|-----------------|-----------------|-----------------| 
A|-----------------|-----------------|-----------------|-----------------| 
E|-1-1-1-1-1-1-1-1-|-3-3-3-3-3-3-3-3-|-4-4-4-4-4-4-4-4-|-5-5-5-5-5-5-5-5-| 

G|-----------------|-----------------|-----------------|-----------------| 
D|-----------------|-----------------|-----------------|-----------------| 
A|-----------------|-----------------|-3---------------|-(3)-------------| 
E|-1-1-1-1-1-1-1-1-|-3r--------------|-----------------|-----------------| 


Hope you enjoy! Let me know if you have corrections! 

************************************ 

| (n) Ghost note 
| r   Release 
| \   Slide down 

************************************ 
	  

Search Paypal
auto scroll beats size up size down change color hide chords drawings
tab show chords e-chords YouTube Clip e-chords hide all tabs e-chords go to top tab