Nofx

home > Nofx

All Outta Agoust Bass Tab

Nofx

Difficulty: BeginnerBeginner

by oi%21+punx

tuner correct add songbook print version text version save to e-mail
chordsukulelecavacokeyboardtabbassdrumsharmonicsflute Guitar Pro
chords

All Outta Agoust

  		Intro: 
|------------------------------- 
|--2-3-2-5-3-2-0----0-2-3-2-0-2- 
|-3--------------0-3------------ 
|------------------------------- 
 
Verso: 
|-------------------------------2---0------------------ 
|--2-3-2-5-3-2-0-2-3-2-3-2-0-0-3-2-3-2-2-0(h)33-22-0--- 
|-3---------------------------3------------------3----- 
|------------------------------------------------------ 
 
Refrão: 
|-------------------------------------------------------------------- 
|--2-3-2-5-3-2-0-2-3-2-3-3-2-0-0------------------------------------- 
|-3-----------------------------3--00000000-------------------------- 
|------------------------------------------33333333-11111111-33333333 
	  

Search Paypal
auto scroll beats size up size down change color hide chords drawings
tab show chords e-chords YouTube Clip e-chords hide all tabs e-chords go to top tab