Nirvana

home > Nirvana

Territory Pissings (Ver.2) Bass Tab

Nirvana

Difficulty: nolevelnolevel

by Maicon%5FAm%5F

tuner correct add songbook print version text version save to e-mail
chordsukulelecavacokeyboardtabbassdrumsharmonicsflute Guitar Pro
chords

Territory Pissings (Ver.2)

  		Verso: 
G|------------------------------------------------------------| 
D|------------------------------------------------------------| 
A|------------------8-8-8-8-8-8-8-8--5-5-5-5-5-5-5-5-5-5-5-5--| 
E|-5-5-5-5-5-5-5-5--------------------------------------------| 
 
 
Refrão: "Gotta find a way a better way..." 
G|---------------------------------------------------------------------------| 
D|---------------------------------------------------------------------------| 
A|------------------8-8-8-8-8-8-8-8--5--0-3-5-5--0-3-5-5--0-3-5-5?0-3-5-3-5--| 
E|-5-5-5-5-5-5-5-5-----------------------------------------------------------| 

	  

Search Paypal
auto scroll beats size up size down change color hide chords drawings
tab show chords e-chords YouTube Clip e-chords hide all tabs e-chords go to top tab