Nirvana

home > Nirvana

Smells like teen spirits (Ver.2) Bass Tab

Nirvana

Difficulty: nolevelnolevel

by Maicon%5FAm%5F

tuner correct add songbook print version text version save to e-mail
chordsukulelecavacokeyboardtabbassdrumsharmonicsflute Guitar Pro
chords

Smells like teen spirits (Ver.2)

  		Intro:                             6X                                2X 
G:-----------------------------------|---------------------------------| 
D:-----------------------------------|---------------------------------| 
A:------1-1-1-1-1------4-4-4-4-4-----|---------1-1-1-1---------4-4-4-4-| 
E:-1--1-----------4--4---------------|-1-1-1-1---------4-4-4-4---------| 
 
Verso: 
G:------------------------------------|----------- 
D:------------------------------------|--repetir-- 
A:---------1-1-1-1---------4-4-4-4----|----------- 
E:-1-1-1-1---------4-4-4-4------------|----------- 
 "Load up on guns and bring youe friends. It's fun to lose and to pretend..." 
 
Pré-Refrão: 
G:------------------------------------|-------- 
D:------------------------------------|---6X--- 
A:---------1-1-1-1---------4-4-4-4----|-------- 
E:-1-1-1-1---------4-4-4-4------------|-------- 
  "Hello, hello, hello, how long?..." 
 
Refrão: 
G:------------------------------------|-------- 
D:------------------------------------|---6X--- 
A:---------1-1-1-1---------4-4-4-4----|-------- 
E:-1-1-1-1---------4-4-4-4------------|-------- 
 "With the lights out it's less dang'rous. Here we are now, entertainus..." 
 
Pró-Refrão: 
G:--------------------------------------------------------------| 
D:--------------------------------------------------------------| 
A:-----------------3-3-3-1-1----------------------3-3-3-1-1-----| 
E:-1-1-0-1-2-2---------------4-3--1-1-0-1-2-2---------------4-3-| 
               Yay!                           Yay! 
 
 
Repete Verso 
 
Repete Pré-Refrão 
 
Repete Refrão 
 
Solo:                              8X                                2X 
G:-----------------------------------|---------------------------------| 
D:-----------------------------------|---------------------------------| 
A:------1-1-1-1-1------4-4-4-4-4-----|---------1-1-1-1---------4-4-4-4-| 
E:-1--1-----------4--4---------------|-1-1-1-1---------4-4-4-4---------| 
 
Repete Verso 
 
Repete Pré-Refrão 
 
Repete Refrão 
 
Final: 
G:---------|-----------------------------------|------|------- 
D:---------|-----------------------------------|--5X--|------- 
A:-4-4-4-4-|------1-1-1-1-1------4-4-4-4-4-----|------|------- 
E:---------|-1--1-----------4--4---------------|------|--1---- 
  "Adeni.....al, adenial, adenial, adenial, adenial 

	  

Search Paypal
auto scroll beats size up size down change color hide chords drawings
tab show chords e-chords YouTube Clip e-chords hide all tabs e-chords go to top tab