Nirvana

home > Nirvana

Smells Like a teen Spirit (ver. 4) Bass Tab

Nirvana

Difficulty: BeginnerBeginner

by KURT+CONBAI

tuner correct add songbook print version text version save to e-mail
chordsukulelecavacokeyboardtabbassdrumsharmonicsflute Guitar Pro
chords

Smells Like a teen Spirit (ver. 4)

  		O baixo entra junto com a bateria 
Intro: 
 
G------------------------------------------------ 
D------------------------------------------------ 
A-----1-1-------4-4------------------------------ 
E-1-1--------4-4--------------------------------- 
 
Verso: 
 
G-------------------------------------------------- 
D-------------------------------------------------- 
A----------1-1-1-1----------4-4-4-4---------------- 
E--1-1-1-1----------4-4-4-4------------------------ 
 
Refrão: 
 
G------------------------------------------------ 
D------------------------------------------------ 
A-----1-1-------4-4------------------------------ 
E-1-1--------4-4--------------------------------- 
 
no final do refrão tem uma variação: 
 
G-------------------------------------- 
D-------------------------------------- 
A-------------3-3-1-1------------------  2X 
E--1-1-0-1-2----------4-3-1------------ 
	  

Search Paypal
auto scroll beats size up size down change color hide chords drawings
tab show chords e-chords YouTube Clip e-chords hide all tabs e-chords go to top tab