Nirvana

home > Nirvana

Smell like teen spirit (ver.2) Bass Tab

Nirvana

Difficulty: IntermediateIntermediate

by rednirjam

tuner correct add songbook print version text version save to e-mail
chordsukulelecavacokeyboardtabbassdrumsharmonicsflute Guitar Pro
chords

Smell like teen spirit (ver.2)

(Cobain / Grohl / Novoselic)

  		quando o baixo entra com a batera 
ele da um slide como marcação da entrada 
do baixo mas so quando entra depois vc segue 
sem da o slide  
g--------------------------------------------------- 
d--------------------------------------------------- 
a----------------------1--1-1-------------4--4-4---- 
e1/13/1---1--1-x-x-x------------4-4-xxx------------- 
 
versos 
g------------------------------------- 
d------------------------------------- 
a--------1-1-0------------4-4--0------ 
e-1-1-0----------4-4-0---------------- 
 
Refrão 
g------------------------------------------------- 
d------------------------------------------------- 
a-----------1--1-1------------------4--4--4------- 
e-1-1xxx--------------4--4-xxx-------------------- 
banda X9 porto vilma ms 
qualquer duvida meu e-mail é [email protected] 
nirvana na veia 

	  

Search Paypal
auto scroll beats size up size down change color hide chords drawings
tab show chords e-chords YouTube Clip e-chords hide all tabs e-chords go to top tab