Nirvana

home > Nirvana

sliver (best version) Bass Tab

Nirvana

Difficulty: EasyEasy

by andre%5Fnirvana

tuner correct add songbook print version text version save to e-mail
chordsukulelecavacokeyboardtabbassdrumsharmonicsflute Guitar Pro
chords

sliver (best version)

  		está igual a música: 
 
introdução: 
 
g--------------------------------------------------------- 
d----------------------------------------------------------- 
a--3-3-3-----------3-3-0------------0-3-3------------ 
e-----------1-1-----------------3-2------------1-1------ 
 
refrao: 
 
 
g----------------------- 
d------------------------ 
a--3-3-3---------------- 
e------------2--1--1---- 

	  

Search Paypal
auto scroll beats size up size down change color hide chords drawings
tab show chords e-chords YouTube Clip e-chords hide all tabs e-chords go to top tab