Nirvana

home > Nirvana

Rape-me (Ver.2) Bass Tab

Nirvana

Difficulty: nolevelnolevel

by Maicon%5FAm%5F

tuner correct add songbook print version text version save to e-mail
chordsukulelecavacokeyboardtabbassdrumsharmonicsflute Guitar Pro
chords

Rape-me (Ver.2)

  		G|-------|----------|---------|----------|----------------------------------- 
D|-------|----------|---------|----------|----------------------------------- 
A|-------|--3-3-3-3-|--7-7----|----------|----------------------------------- 
E|-5-5---|----------|---------|-3-3-3-3--|----------------------------------- 
 
  Refrao bem rapido, sabendo a musica vc so acompanha.                         
 
G|-------|----------|---------|---------|------------------------------------ 
D|-------|----------|---------|---------|------------------------------------ 
A|-------|--3-3-3-3-|-7-7-7-7-|---------|------------------------------------ 
E|5-5-5-5|----------|---------|-3-3-3-3-|------------------------------------ 

	  

Search Paypal
auto scroll beats size up size down change color hide chords drawings
tab show chords e-chords YouTube Clip e-chords hide all tabs e-chords go to top tab