Nirvana

home > Nirvana

Opnion Bass Tab

Nirvana

Difficulty: nolevelnolevel

by meta11eir0

tuner correct add songbook print version text version save to e-mail
chordsukulelecavacokeyboardtabbassdrumsharmonicsflute Guitar Pro
chords

Opnion

  		Nirvana 
Opinion 
 
Essa musica tem varias versoes, essa ť provavelmente a mais conhecida... 
 
Verso 
G |------------------| 
D |------------------| 
A |-------2~---------| 
E |-3~111---111------| 
 
Refrao 
G |------------------| 
D |------------------| 
A |-------2~2/444----| 
E |-3~111------------| 
 
Toque isso quando a guitarra parar um pouco...  
G |------------------| 
D |------------------| 
A |---------222------| 
E |-333-111-----111--| 
 
Escute a musica pra pegar bem o ritmo. 
Valeu 
 

	  

Search Paypal
auto scroll beats size up size down change color hide chords drawings
tab show chords e-chords YouTube Clip e-chords hide all tabs e-chords go to top tab