Nirvana

home > Nirvana

Make You Happy (Chorus Verse Chorus) Bass Tab

Nirvana

Difficulty: nolevelnolevel

by meta11eir0

tuner correct add songbook print version text version save to e-mail
chordsukulelecavacokeyboardtabbassdrumsharmonicsflute Guitar Pro
chords

Make You Happy (Chorus Verse Chorus)

  		Verse Chorus Verse 
 
Afinacao:(Eb Ab Db Gb) 
 
(r)=deixe a nota soar 
 
-escute a musica pra pegar bem o ritmo 
 
Verso (a intro  feita na guitarra): 
Gb|----2------------------------3-3-5-5| 
Db|-000--000------------2------3-3-5-5-| 
Ab|----------1111---5--0-0-000---------| 4x 
Eb|---------------33-3-----------------| 
 
Refrao: 
Gb|--------------------------| 
Db|--------------------------| 
Ab|-55555555-11111111--------| 1x 
Eb|-------------------3333333| 
 
Gb|------------------| 
Db|------------------| 
Ab|-11111111---------| 2x 
Eb|----------33333333| 
 
Gb|-------------| 
Db|-------------| 
Ab|-11111111-0r-| 1x 
Eb|-------------| 
 
Intro (s a guitarra) 
Verso 
Refrao 
Verso 
Refrao 
Solo da guitarra (s toque 4 vezes o verso) 
Refrao 
Intro 
Verso 
Refrao (no ultimo refrao toque 3 vezes) 
 

	  

Full key step upFull key step up
Half key step upHalf key step up
Half key step downHalf key step down
Full key step downFull key step down
Search Paypal
auto scroll beats size up size down change color hide chords drawings
tab show chords e-chords YouTube Clip e-chords hide all tabs e-chords go to top tab