Nirvana

home > Nirvana

Love Buzz (best version) Bass Tab

Nirvana

Difficulty: nolevelnolevel

by principe%5FBoddaH

tuner correct add songbook print version text version save to e-mail
chordsukulelecavacokeyboardtabbassdrumsharmonicsflute Guitar Pro
chords

Love Buzz (best version)

  		 
 
 
 
 
G|-5p--5-3-5-5s6s5---------------------------------------------| 
D|-------------------------------------------------------------| 27x 
A|-------------------------------------------------------------|   
E|-------------------------------------------------------------| 
 
G|-5p--5-3-5-5s6s5-5p--5-3-5-5s6s5-5p--5-3-5-5s6s5-5-3-5-66----| 
D|-------------------------------------------------------------| 2x 
A|-------------------------------------------------------------|   
E|-------------------------------------------------------------| 
                                                    
G|-5-3-5-66-5p--5-3-5-66-5p--5-3-5-6-8-7-9-7-6-5-4-------------| 
D|-------------------------------------------------------------| 
A|-------------------------------------------------------------| 
E|-------------------------------------------------------------|   
 
G|-5p--5-3-5-5s6s5---------------------------------------------| 
D|-------------------------------------------------------------| 24x 
A|-------------------------------------------------------------| 
E|-------------------------------------------------------------| 
 
G|-------------------------------------------------------------| 
D|-------------------------------------------------------------| 
A|-------------------------------------------------------------|  
E|-000000000000000001------------------------------------------| 
 
 
 
  Essa tablatura foi o melhor que eu consegui pegar de ouvido espero que esteja bom e que vcs gostem 
 Vlw!!! 
 
 
[email protected] 

	  

Search Paypal
auto scroll beats size up size down change color hide chords drawings
tab show chords e-chords YouTube Clip e-chords hide all tabs e-chords go to top tab