Nirvana

home > Nirvana

Lithium (Ver.2) Bass Tab

Nirvana

Difficulty: EasyEasy

by Maicon%5FAm%5F

tuner correct add songbook print version text version save to e-mail
chordsukulelecavacokeyboardtabbassdrumsharmonicsflute Guitar Pro
chords

Lithium (Ver.2)

  		- A introdução e o primeiro verso é só com a guitarra, o baixo entra no Refrão. 
 
Refrão: 
G:-------------------------------------------------------------------- 
D:---------------------------7--0---5--5-5--7--7-7----------0-0-0-0--- 
A:---------------4--4--0--0-------------------------2-2-2-2----------- 
E:--0--0---4--0------------------------------------------------------- 
 "Yeah, Yeah..." 
 
Verso1: 
G:----------------------------------------------------- 
D:----------------------7-0--5-5--7-7---------0-0-0-0-- 
A:--7--7--6--6--4--4--0---------------2-2-2-2---------- 
E:----------------------------------------------------- 
 "I'm so lonely, but that's okay..." 
 
 
Repete Refrão 
 
 
Verso2: 
G:---------------------------------------------------- 
D:--------------------------------5-7--7-7--5---5----- 
A:---0--0-0--3--3-3--0--0-3--5--7-------------7---7--- 
E:---------------------------------------------------- 
I like you, I'm not gonna crack. I'm miss you, I'm not a gonna crack..." 
 
 
Repetir Verso1 
 
 
Repetir Refrão 
 
 
Repetir Verso2 

	  

Search Paypal
auto scroll beats size up size down change color hide chords drawings
tab show chords e-chords YouTube Clip e-chords hide all tabs e-chords go to top tab