Nirvana

Like of Fire ( vers. 2 ) Bass Tab

Nirvana

Difficulty: BeginnerBeginner

by principe%5FBoddaH

tuner correct add songbook print version text version save to e-mail
chordsukulelecavacokeyboardtabbassdrumsharmonicsflute Guitar Pro
close

there isn't a video lesson for this song

request
chords

Like of Fire ( vers. 2 )

  		toque a música nessa sequencia: 
riff 1 
riff 2 
riff 3 
riff 1 
riff 2 
riff 3 
 
riff 1: A maior parte da música é esse solo 
G|-----------------------------------------------------------|  
D|-----------------------------------------------------------|  
A|------------2--------4-4-2---------------2--4-4-4----------|  
E|-3-3--3-1-1---3-3--3-------1--3-3--3-1-1----------1-1-3----|  
 
 
riff 2:  
G|-------------------------------|              
D|-------------------------------|            
A|-5-5-----5-5-2-2-5-5-2-2-3-5-1-| 
E|-----1-3-----------------------| 
 
 
riff 3:  
G|-----------------|       
D|-----------------|         
A|------------2----|       
E|-3-3--3-1-1------| 
 
 
 

	  

Search Paypal
auto scroll beats size up size down change color hide chords drawings
tab show chords e-chords YouTube Clip e-chords hide all tabs e-chords go to top tab

share with facebook