Nirvana

home > Nirvana

Jesus Dont Want Me For A Sunbeam Bass Tab

Nirvana

Difficulty: nolevelnolevel

by carlluz

tuner correct add songbook print version text version save to e-mail
chordsukulelecavacokeyboardtabbassdrumsharmonicsflute Guitar Pro
chords

Jesus Dont Want Me For A Sunbeam

  		
Intro 
Gb|----------------------------------------------------------| 
Db|----------------------------------------------------------| 
Ab|---------5-5-5-5-0-0-0-0--5-5--0-0------------------------| 
Eb|-0-0-0-0--------------------------------------------------| 

Verse 
Gb|----------------------------------------------------------| 
Db|----------------------------------------------------------| 
Ab|---------5-5-5-5-0-0-0-0--5-5--0-0------------------------| 
Eb|-0-0-0-0--------------------------------------------------| 

Chorus 
Gb|-----------------------------------------------------------------| 
Db|-----------------------------------------------------------------| 
Ab|---------5-5-5-5---------5-5-5-5---------5-5-5-5--0-0-0--5-5-0-0-| 
Eb|-0-0-0-0---------0-0-0-0---------0-0-0-0-------------------------| 

Outro 
Gb|----------------------------------------------------------| 
Db|----------------------------------------------------------| 
Ab|---------5-5-5-5--0-0-0-0-5-5-0-0-------------------------| 
Eb|-0-0-0-0--------------------------------------------------| 



************************************ 

| b  Bend 

************************************ 
	  

Search Paypal
auto scroll beats size up size down change color hide chords drawings
tab show chords e-chords YouTube Clip e-chords hide all tabs e-chords go to top tab