Nirvana

home > Nirvana

Jesus Doesn't Want Me for a Sunbeam(ver.2) Bass Tab

Nirvana

Difficulty: BeginnerBeginner

by principe%5FBoddaH

tuner correct add songbook print version text version save to e-mail
chordsukulelecavacokeyboardtabbassdrumsharmonicsflute Guitar Pro
chords

Jesus Doesn't Want Me for a Sunbeam(ver.2)

  		a música segue nessa sequencia  
riff 1 (6 vezes) 
riff 2 (2 vezes) 
riff 3 (1 vez) 
riff 1 (4 vezes) 
riff 2 (2 vezes) 
riff 3 (1 vez) 
riff 1 (2 vezes) 
riff 2 (2 vezes) 
riff 3 (1 vez) 
riff 1 (4 vezes) 
riff 2 (5 vezes) 
riff 3 (1 vezes) 
riff 1 (1 vezes) 
riff 4 (1 vez) 
 
 
riff 1 
 
G|------------------------------------|      
D|-2-2-2-5-4-0-0-0-5-4------0---------|         
A|--------------------0-0-0---0-0-----|       
E|------------------------------------| 
 
riff 2 
 
G|------------------|      
D|-2-2-2-2-0-0-0-0--|         
A|------------------|       
E|------------------| 
 
riff 3 
 
G|-------------------------------------|      
D|-2-2-2-2-0-0-0-0-------0-------------|         
A|------------------0-0-0---0-0--------|       
E|-------------------------------------| 
 
riff 4 
 
G|------------------------------------|      
D|-2-2-2-5-4-0-0-0-5-4-7-7-8-6--------|         
A|------------------------------------|       
E|------------------------------------| 
 

	  

Search Paypal
auto scroll beats size up size down change color hide chords drawings
tab show chords e-chords YouTube Clip e-chords hide all tabs e-chords go to top tab