Nirvana

home > Nirvana

In bloom (Ver.2) Bass Tab

Nirvana

Difficulty: EasyEasy

by Maicon%5FAm%5F

tuner correct add songbook print version text version save to e-mail
chordsukulelecavacokeyboardtabbassdrumsharmonicsflute Guitar Pro
chords

In bloom (Ver.2)

  		Intro: 
G:---------------------------------------------------| 
D:---------------------------------------------------| 
A:---1-1-1-1-----------------1-1-1-1-----------------| 
E:-----------3---1-1-1-1-4-----------3---1-1-1-1-4---| 
 
Verso 6X: 
G:------------------------------------------------------------------| 
D:---------------------------------1-1-1-1-1--1-1-------------------| 
A:---1-1-1-1-1--1-1-------------------------------2-2-2-2-0-0-0-0---| 
E:------------------2-2-2-2-2--2-2----------------------------------| 
 "Sell the kids, for food..." 
 
Refrão: 
G:---------------------------------|------|---------------------------------| 
D:---------------------------------|--4X--|---------------------------------| 
A:---------------10--10-10-10-10---|------|--------------6--------------6---| 
E:---6--6-6-6-6--------------------|------|---8--8-8-8-8-----8--8-8-8-8-----| 
 "He's  the one who likes all our pretty songs likes to sing a long..." 
 
Solo 2X: 
G:------------------------------------------------------------------| 
D:---------------------------------1-1-1-1-1--1-1-------------------| 
A:---1-1-1-1-1--1-1-------------------------------2-2-2-2-0-0-0-0---| 
E:------------------2-2-2-2-2--2-2----------------------------------| 
 
Pós-solo: 
G:---------------------------------|------| 
D:---------------------------------|--2X--| 
A:--------------6--------------6---|------| 
E:---8--8-8-8-8-----8--8-8-8-8-----|------| 
 "knows not what it means..." 
 
Final: 
G:------------------------------------------------------| 
D:------------------------------------------------------| 
A:---1-1-1-1-----------------1-1-1-1----------------1~--| 
E:-----------3---1-1-1-1-4-----------3---1-1-1-1-4------| 

	  

Search Paypal
auto scroll beats size up size down change color hide chords drawings
tab show chords e-chords YouTube Clip e-chords hide all tabs e-chords go to top tab