Nirvana

home > Nirvana

I Hate Myself And I Want To Die Bass Tab

Nirvana

Difficulty: ExpertExpert

by meta11eir0

tuner correct add songbook print version text version save to e-mail
chordsukulelecavacokeyboardtabbassdrumsharmonicsflute Guitar Pro
chords

I Hate Myself And I Want To Die

Year: 2004 - Album: With The Lights Out

  		Nirvana 
I Hate Myself And Want To Die  
                                   
Verso: (comece o tocar quando a bateria entrar) 
 
G-----------------------------------|  
D-----------------------------------|        x4 
A-----------------------------------| 
E-4--4--4-2-2-1-2--4--4--4-2-2-1-0--| 
 
Refrao: 
G-------------------| 
D-------------------|             x8 
A-------------------| 
E-3--3--1-1\7-7-7-7-| 
 
Toque o verso e o refrao novamente. 
 
e durante o solo: 
G--------------------------|  
D--------------------------|  
A---------7-----------3----|  
E-3-3-3-3-----3-3-3-3------|  
 
toque novamente o verso e o refrao. 
Depois da ultima vez que vc tocar o refrao toque isso: 
G----------------| 
D----------------| 
A----------------| 
E--4--4-4-3-2-1--| 
E pronto. 

	  

Search Paypal
auto scroll beats size up size down change color hide chords drawings
tab show chords e-chords YouTube Clip e-chords hide all tabs e-chords go to top tab