Nirvana

home > Nirvana

Francis Farmer Will Have Her Revenge On Seattle Bass Tab

Nirvana

Difficulty: BeginnerBeginner

by KURT+CONBAI

tuner correct add songbook print version text version save to e-mail
chordsukulelecavacokeyboardtabbassdrumsharmonicsflute Guitar Pro
chords

Francis Farmer Will Have Her Revenge On Seattle

  		Drop D-tuning (D A D G) 
 
No bass during intro, Play this when the drums come in 
A:-1-1-1-1-1-1-1-1-1-1---------- 
D:---------------------3-3-4---- 
 
Verse 
G:------------------------------------------------------------------------- 
D:------------------------------------------------------------------------- 
A:-------------------------------------------1-1-1-1-1-1-1-1-1-1----------- 
D:-5-5-5-5-5-5\1-1-1-1-4-4-4-4\1-1-1-1-4-4-4---------------------3-3-4----- 
- 
Chorus (x2) 
G:-------------------------------------------------------------- 
D:-------------------------------------------------------------- 
A:-3-3-3-3-3-3-5-6-6-6-6-6-6-6-6-------------------------------- 
D:-------------------------------6-6-6--8-8-8-8-8-8-8-8-8-8-8-8- 
 
Last time play this (x1) 
G:------------------------------------------- 
D:------------------------------------------- 
A:-3-3-3-3-3-3-5-6-6-6-6-6-6-6--------------- 
D:-----------------------------6-6-6-and then play After chorus 
 
After Chorus  x1 
G:------------------------------------------------------------------------ 
D:------------------------------------------------------------------------ 
A:------------------------------------------------------------------------ 
D:-8-8-8-8-8-8-6-6-6-6-6-6-8-8-8-8-8-8-6-6-6-6-6-6-4-4-4-4-4-3-3-3-3-3-4-- 
 
Bridge 
G:---------------------------------------------------------------------- 
D:---------------------------------------------------------------------- 
A:---------6-6-(6)-------6-6-(6)------6-6-3-3-3-3-3-3-3-4-4-4-4-3-1----- 
D:--5-5-5---------5-5-5---------5-5-5--------------------------------6-- 
 
After the bridge play the after Chorus 
	  

Full key step upFull key step up
Half key step upHalf key step up
Half key step downHalf key step down
Full key step downFull key step down
Search Paypal
auto scroll beats size up size down change color hide chords drawings
tab show chords e-chords YouTube Clip e-chords hide all tabs e-chords go to top tab