Nirvana

home > Nirvana

Dive (Ver.3) Bass Tab

Nirvana

Difficulty: nolevelnolevel

by Maicon%5FAm%5F

tuner correct add songbook print version text version save to e-mail
chordsukulelecavacokeyboardtabbassdrumsharmonicsflute Guitar Pro
chords

Dive (Ver.3)

  		Introdução/Verso: 
G|------------------------| 
D|------------------------| ^=1/2 step bend 
A|------------------7-7-7-| 
E|-2-0-2^-0-2^-0-0--------| 
 
 
Refrão: 
G|----------------------| 
D|----------------------| 
A|-2--2-4--4-------7-7--| 
E|-----------3--3-------| 
 
 
Parte tocada no solo de guitarra: 
G|-----------------------------------| 
D|-----------------------------------| 
A|-13-11-13^-11-13^-11-11------------| 
E|-------------------------12-12-12--| 
 
 
Order: 
Introdução/Verso 
Refrão 
Introdução/Verso 
Refrão 
Parte tocada no solo de guitarra 
Refrão 
e no fim Introdução/Verso 

	  

Search Paypal
auto scroll beats size up size down change color hide chords drawings
tab show chords e-chords YouTube Clip e-chords hide all tabs e-chords go to top tab