Nirvana

home > Nirvana

D7 Bass Tab

Nirvana

Difficulty: nolevelnolevel

by meta11eir0

tuner correct add songbook print version text version save to e-mail
chordsukulelecavacokeyboardtabbassdrummharmonicsflute Guitar Pro
chords

D7

  		Nirvana 
D7 
 
A versao que eu tenho dessa musica começa lenta e vai ate a metade lenta. Depois comeca uma 
outra versao pesada e tudo mais com as mesmas notas no baixo, na real sao os acordes da 
guitarra que mudam. 
 
Introduçao 
G---------------------------------------------- 
D-----------------2---------------------------- 
A---------2----------------------3---5---3----- 
E---0------------------0--1-------------------- 
 
Main Riff 
G---------------------------|-------------------------- 
D---------------------------|-------------------------- 
A---------------------------|--0000000---1-1--3-3--1--- 
E---0000000---1-1--3-3--1---|-------------------------- 
	  

Full key step upFull key step up
Half key step upHalf key step up
Half key step downHalf key step down
Full key step downFull key step down
Search Paypal
auto scroll beats size up size down change color hide chords drawings
tab show chords e-chords YouTube Clip e-chords hide all tabs e-chords go to top tab