Nirvana

home > Nirvana

Come as you are(ver. 2) Bass Tab

Nirvana

Difficulty: nolevelnolevel

by GaBriel%5F182

tuner correct add songbook print version text version save to e-mail
chordsukulelecavacokeyboardtabbassdrumsharmonicsflute Guitar Pro
chords

Come as you are(ver. 2)

  		 
 
                                                PARTE A 
 
|------------------------------------------------------------------------------------------------------------------------ 
|--------------------------------5------------5------------------------------------7--------------------------------- 
|----5---5----6--7------------------7------------7------7------6----5------------------6------5---------------(varias x) 
|------------------------------------------------------------------------------------------------------------------------ 
 
 
                                             PARTE B 
 
|---------------------------------------------------------------------------------------------------------- 
|-----------------------------------------5-----5--5--5--5--5--5--5--5---------------------------- 
|----7-------7--7--7--7--7--7-----------------------------------------------------------------------(varias x) 
|---------------------------------------------------------------------------------------------------------- 
 
 
 
                                           PARTE C 
 
|----------------------------------------------------------------------------------------------------------- 
|----------------------------------------------------------------------------------------------------------- 
|----0--------------------0--0--0--0---0--0------------3--3---3---3--3--3--3-3--------------(varias x) 
|---------------------------------------------------------------------------------------------------------- 
 
 
Atençao! 
 
Ouça bem a musica para pegar o ritmo certo! 

	  

Full key step upFull key step up
Half key step upHalf key step up
Half key step downHalf key step down
Full key step downFull key step down
Search Paypal
auto scroll beats size up size down change color hide chords drawings
tab show chords e-chords YouTube Clip e-chords hide all tabs e-chords go to top tab