Nirvana

home > Nirvana

Come as you are (Ver.2) Bass Tab

Nirvana

Difficulty: nolevelnolevel

by Maicon%5FAm%5F

tuner correct add songbook print version text version save to e-mail
chordsukulelecavacokeyboardtabbassdrumsharmonicsflute Guitar Pro
chords

Come as you are (Ver.2)

	   
Verso: 
G:--------------------------------|   
D:---------7---7---------9--------|   
A:-7-7-8-9---9---9-9-8-7---7-7----| 
E:--------------------------------| 
 "Come as you are, as you were, as I want you to be..."  
 
Refrão: 
G -----------------------------|   
D -----------------------------|  
A -----------------------------|  
E -2-2-2-2-2--5-5-5-5-5--------|   
 "Memory, memory..." 
 
Pós-Refrão: 
G -----------------------------|   
D -----------------------------|   
A -2-2-2-2-2--5-5-5-5-5--------| 
E -----------------------------| 
 "And I swear that I don't have a gun" 
 
Solo: 
G:--------------------------------|   
D:---------7---7---------9--------|   
A:-7-7-8-9---9---9-9-8-7---7-7----| 
E:--------------------------------| 
 

	  

Search Paypal
auto scroll beats size up size down change color hide chords drawings
tab show chords e-chords YouTube Clip e-chords hide all tabs e-chords go to top tab