Nirvana

home > Nirvana

Blew (Ver.2) Bass Tab

Nirvana

Difficulty: nolevelnolevel

by Maicon%5FAm%5F

tuner correct add songbook print version text version save to e-mail
chordsukulelecavacokeyboardtabbassdrumsharmonicsflute Guitar Pro
chords

Blew (Ver.2)

  		intro: "thank you for your patience.." hehehe 
G-:--------------      G-:-------------- 
D-:--------------      D-:-------------- 
A-:--------------      A-:-------------- 
E-:--0-3-5-5^6-0- 3x   E-:--0-3-5-5^6-6- 1x 
 
-=-=-=-=-=-=-=-=-=-=-=-=-=-=-=-=-=-=-=-=-=-=-=-=-=-=-=-=-=- 
 
verso: ...and if you wouldn't mind I would like to blew 
G-:---------------------------- 
D-:---------------------------- 
A-:---------------------------- 
E-:--0-0-3-5-5^6-6-5-3-0-3^5-5- 
 
-=-=-=-=-=-=-=-=-=-=-=-=-=-=-=-=-=-=-=-=-=-=-=-=-=-=-=-=-=- 
 
Refrão: ...is there another reason for your stain? 
G-:-------------------------------- 
D-:-------------------------------- 
A-:-------------------------------- 
E-:--3-5---5-5-3---0-3-5---5-5-3-6- 
 
ultima parte do Refrão: (tudo igual, só muda o fim) 
 
G-:------------------------------------------------ 
D-:------------------------------------------------ 
A-:------------------------------------------------ 
E-:--3-5---5-5-3---0-3-5---5-5-3-7-7-7-7-7-7-7-7-7- 
 
-=-=-=-=-=-=-=-=-=-=-=-=-=-=-=-=-=-=-=-=-=-=-=-=-=-=-=-=-=- 
 
SOLO: 4x 
G-:-------------------------------- 
D-:-------------------------------- 
A-:-------------------------------- 
E-:--3-5---5-5-3---0-3-5---5-5-3-6- 
 
SOLO: 3x 
G-:-------------------------------- 
D-:-------------------------------- 
A-:----------------3-0-3-5--5-5-5-- 
E-:--3-0-3-5-5^7-5----------------- 
 
-=-=-=-=-=-=-=-=-=-=-=-=-=-=-=-=-=-=-=-=-=-=-=-=-=-=-=-=-=- 
 
G-:-- 
D-:-- 
A-:-- 
E-:-- 

	  

Search Paypal
auto scroll beats size up size down change color hide chords drawings
tab show chords e-chords YouTube Clip e-chords hide all tabs e-chords go to top tab