Nirvana

home > Nirvana

Aneurysm (Ver.2) Bass Tab

Nirvana

Difficulty: AdvancedAdvanced

by Maicon%5FAm%5F

tuner correct add songbook print version text version save to e-mail
chordsukulelecavacokeyboardtabbassdrumsharmonicsflute Guitar Pro
chords

Aneurysm (Ver.2)

  		Intro: 
G:-----------------------------------| 
D:-----------------------------------| 
A:--------3-3-3-3-2-2-2-2-0-0-0-0----| 
E:--2--2-2---------------------------| 
 
Verso: 
G:--------------------------------------------------| 
D:--------------------------------------------------| 
A:--2--2-2--2--2---5-5-5-5-5-5-5-5-5-5-5-5-5-5------| 
E:--------------------------------------------------| 
 
Refrão: 
G:-----------------------------| 
D:-----------------------------| 
G:-----0-0-2-2-2-2-0-0-0-0-----| 
E:--2-2------------------------| 
 
Final: 
G:-----------------------------------| 
D:-----------------------------------| 
A:--------3-3-3-3-2-2-2-2-0-0-0-0----| 
E:--2--2-2---------------------------| 

	  

Search Paypal
auto scroll beats size up size down change color hide chords drawings
tab show chords e-chords YouTube Clip e-chords hide all tabs e-chords go to top tab