Nirvana

home > Nirvana

About A Girl (ver. 3) Bass Tab

Nirvana

Difficulty: BeginnerBeginner

by delete1234

tuner correct add songbook print version text version save to e-mail
chordsukulelecavacokeyboardtabbassdrummharmonicsflute Guitar Pro
chords

About A Girl (ver. 3)

(Kurt Cobain)

  		 
RIFF 1 
\--------------------------------\ 
\--------------------------------\ 
\--------------------------------\ 
\--0---0-3---3-0---0-3---3-0-----\ 
 
RIFF 2 
\----------------------------------\ 
\----------------------------------\ 
\---------------5-7---7-10--7-10-7-\ 
\--0--0--3--5----------------------\ 
 
RIFF 3 
\----------------------------------------------\ 
\---------------------------------------4-4-4-4\ 
\--4-4-4-------------------4-4-4---------------\ 
\---------4-4-4---2-2-2-2--------4-4-4---------\ 
 
RIFF 4 
\-----------------------------------\ 
\---------------------------------0-\ 
\------------------0-0-0---3-5-3----\ 
\--0-0-0--4-4-4-4-------------------\ 
 
INTRO: RIFF 1 2x 
 
          RIFF 2 
I    need an easy friend  
          RIFF 2     
I do with an ear to lend  
          RIFF 2 
I do   think you fit this shoe  
          RIFF 2 
I do but you have a clue  
          RIFF 3 
  I'll  take a advantage while  
  You hang me out to dry  
          RIFF 4  
But I can't see you every night  
          RIFF 1 2x 
Free         I do       
          RIFF 2  
I'm standin' in your line  
          RIFF 2  
I do   hope you have the time   
          RIFF 2 
I do   pick a number too   
          RIFF 2  
I do   keep a date with you  
          RIIF 3   
I'll  take a advantage while  
  You hang me out to dry  
          RIFF 4  
But I can't see you every night  
          RIFF 1 2x 
Free         I do  
  
Solo:   
RIFF 2 4x   RIFF 3   RIFF 4   RIFF 1 2x  
  
          RIFF 2 
I    need an easy friend  
          RIFF2  
I do with an ear to lend  
          RIFF 2  
I do   think you fit this shoe  
          RIFF 2 
I do but you have a clue  
          RIFF 3 
  I'll  take a advantage while  
  You hang me out to dry  
          RIFF 4  
But I can't see you every night  
          RIFF 4  
But I can't see you every night  
          RIFF 1 4x 
Free          I do           I do        I do 

	  

Search Paypal
auto scroll beats size up size down change color hide chords drawings
tab show chords e-chords YouTube Clip e-chords hide all tabs e-chords go to top tab