Nirvana

home > Nirvana

About a girl (acustic) Bass Tab

Nirvana

Difficulty: BeginnerBeginner

by rednirjam

tuner correct add songbook print version text version save to e-mail
chordsukulelecavacokeyboardtabbassdrumsharmonicsflute Guitar Pro
chords

About a girl (acustic)

	  tenho certeza que esta quase tudo correto pegue 
o ritimo da musica para ficar mais parecido 
falouuuuuu galera nirvana no sangue 
 
intro 
 
G---------------------------------------------------- 
D---------------------------------------------------- 
A---------------------------------------------------- 
E----0-0-0-0--3-3-3---------------------------------- 
de vez equando no acustico ele faz unas fariaçoes  
nos verços pode olhar e veja as partes que sao as variaçoes 
çao essas de baixo 
G----------------------------- 
D----------------------------- 
A--7-7-7-7---10-10-10--------- 
E----------------------------- 
refrao 
G--------------------------------- 
D--------------------------------- 
A---4-4-0------------------------- 
E----------4-4-0--2-2-0-2-0-2-0--- 
 
quando acaba o refrao a passagem paraa volta dos verços 
G----------------------------- 
D----------------------------- 
A--------------3-3-3---------- 
E-0-0-0-5-5-5---------0-0-0--- 
DEPOIS VOLTA AOS VERÇOS 
 
na hora do solo vc pode fazer base como a intro ou  
fazer este solo que ele faz na versao do estudio fica mais 
legau se tiver só uma guitarra 
 
G-------------------------------------- 
D-------------------------------------- 
A-------------------------------------- 
E-0-0-0-3-3-3-3-3/12-12-12-12-12-12-12- 
 
QUALQUER DUVIDAMEU E-MAIL É [email protected] 

	  

there isn't a video lesson for this song

request
Search
auto scroll beats size up size down change color hide chords drawings
tab show chords e-chords YouTube Clip e-chords hide all tabs e-chords go to top tab