Nirvana

home > Nirvana

Lounge Act (V.3) Bass Tab

Nirvana

Difficulty: ExpertExpert

by KURT+CONBAI

tuner correct add songbook print version text version save to e-mail
chordsukulelecavacokeyboardtabbassdrumsharmonicsflute Guitar Pro
chords

Lounge Act (V.3)

  		 
  
Intro & verses  
||--------------|-------------|--------------------------=|----------------------------- 
||*-----0--4----|-------------|---------------------------|----------------------------- 
||*-/2----------|-------------|---5---3-2--0----2--4--5---|-----------------5---3-2-0--- 
||--------------|--2----3-2-3/|---------------------------|--2----3-2-3----------------- 
 
Chorus                                                     
 
 
----||-----------||------------------------------------- 
---*||-----------||*------------------------------------ 
---*||-----------||*-----------------------2-2-2-------- 
----||-----------||----0--0--5-5-5--3-3----------------- 
 
part right after the chorus               
 
----||--------------------------------------------------- 
---*||--------------------------------------------------- 
---*||--------------------------------------------------- 
----||----0-----3-3-3--2-2-2-2-----0--------------------- 
	  

Search Paypal
auto scroll beats size up size down change color hide chords drawings
tab show chords e-chords YouTube Clip e-chords hide all tabs e-chords go to top tab