Nico Vega

Fury Oh Fury

Nico Vega

bass

by  ANDRSOUZA

save to print version add songbook text version e-mail correct tuner
chordsukulelecavacokeyboardtabbassdrumsharmonicaflute Guitar Pro
close

there isn't a video lesson for this song

chords

Fury Oh Fury

	  		

  Verse 1 x4 

G|---------------9-9|-----------7-7-----------5-5-|---------------------| 
D|------------------|-----------------------------|---------------------| 
A|--------7-7--7----|--x-5-5--5------x-3-3--3-----|-x-3-3--x-5-5--x-7-7-| 
E|------------------|-----------------------------|---------------------| 

  Chorus 1 x4 
                           First 3 runs 
G|------------------------|-------------------| 
D|------------------------|-------------------| 
A|-7-7-----5-5-----3-3----|-2-2--x-5-5--x-7-7-| 
E|------------------------|-------------------| 

                           Last run 
                         G|---------------| 
                         D|---------------| 
                         A|-2-2--x-2-2--x-| 
                         E|---------------| 

  Post-Chorus 1 

G|----------------------|-------------| 
D|----------------------|-------------| 
A|-7-----5h7p5-3-2--x-2-|-x-x--x-x-x--| 
E|----------------------|-------------| 

  Verse 2 x4 

G|---------------9-9|-----------7-7-----------5-5-|---------------------| 
D|------------------|-----------------------------|---------------------| 
A|--------7-7--7----|--x-5-5--5------x-3-3--3-----|-x-3-3--x-5-5--x-7-7-| 
E|------------------|-----------------------------|---------------------| 

  Chorus 2 x4 
                           First 3 runs 
G|------------------------|-------------------| 
D|------------------------|-------------------| 
A|-7-7-----5-5-----3-3----|-2-2--x-5-5--x-7-7-| 
E|------------------------|-------------------| 

                           Last run 
                         G|---------------| 
                         D|---------------| 
                         A|-2-2--x-2-2--x-| 
                         E|---------------| 

  Bridge 
G|-------| 
D|-------| 
A|-------| 
E|-------| 

  Chorus 3 x4 
                           First 3 runs 
G|----/14|------------------------|-------------------| 
D|-------|------------------------|-------------------| 
A|-------|-7-7-----5-5-----3-3----|-2-2--x-5-5--x-7-7-| 
E|-------|------------------------|-------------------| 

                                   Last run 
                                 G|---------------| 
                                 D|---------------| 
                                 A|-2-2--x-2-2--x-| 
                                 E|---------------| 

  Outro 1 x10 

  First 9 runs 

G|--------------------------|-------------------| 
D|--------------------------|-------------------| 
A|-7-7-----10-10-----3-3----|-2-2--x-5-5--x-7-7-| 
E|--------------------------|-------------------| 

  Last run 

G|---------------------------| 
D|---------------------------| 
A|-7-7-----10-10-----3-3\----| 
E|---------------------------|  
		  

See also:

bass Red Hot Chili Peppers - Buckle Down bass Skillet - Savior bass Good Charlotte - Bloody Valentine (ver. 2) bass Red Hot Chili Peppers - Dosed bass Red Hot Chili Peppers - America Ghost Dance bass Red Hot Chili Peppers - Bass(solo flea)
e-chords

Other versions:

bass Nico Vega - Fury Oh Fury
auto scroll beats size up size down change color hide chords drawings
tab show chords e-chords YouTube Clip e-chords hide all tabs e-chords go to top tab

share