Newsboys

home > Newsboys

Woo-Hoo Bass Tab

Newsboys

Difficulty: ExpertExpert

by vasodebarro

tuner correct add songbook print version text version save to e-mail
chordsukulelecavacokeyboardtabbassdrumsharmonicsflute Guitar Pro
chords

Woo-Hoo

  		Verse 1 & 2: 

	G |--------------------------------- 
	D |--------------------------------- 
	A |-----7--0------------------------ 
	E |--9------------------------------        (Repeat this 2x) 




		 
			Pre-Chorus: 

	G |-------------------------------- 
	D |-------------------------------- 
	A |-------------------------------- 
	E |--9---9-9---9-9--9-------------- 


	G |-------------------------------- 
	D |-------------------------------- 
	A |-------------------------------- 
	E |--9---9-9---9-9--9--------------          


			Chorus: 

	G |-------------------------------- 
	D |-------------------------------- 
	A |-------------------------------- 
	E |--10--9--12---------------------             


			 

			Bridge: 

	G |---------------------------------- 
	D |---------------------------------- 
	A |--------9--9--------9--9---------- 
	E |--9--7--------9--7---------------- 


			Repeat into the Chorus 


	  

Search Paypal
auto scroll beats size up size down change color hide chords drawings
tab show chords e-chords YouTube Clip e-chords hide all tabs e-chords go to top tab