Newsboys

home > Newsboys

God Is Not A Secret Bass Tab

Newsboys

Difficulty: nolevelnolevel

by vasodebarro

tuner correct add songbook print version text version save to e-mail
chordsukulelecavacokeyboardtabbassdrumsharmonicsflute Guitar Pro
chords

God Is Not A Secret

Year: 1996 - Album: Take Me to Your Leader

  		Tuning: Standard (E A D G) 
Note: This is based off the original version of the song, but it would  
probably also work for the remix on Shine the Hits. 


 Intro 1/Verse 

G------------------------------------------- 
D------------------------------------------- 
A--77-77-77--5-5-5----0--5--0--5--0--5------ (with some variations) 
E------------------------------------------- 
                                       (x4) 


 Intro 2/Chorus 

G---------------------|--------------------- 
D---------------------|--------------------- 
A--77-77-77--3-3-3----|--22-22-22--55-5-5--- 
E---------------------|--------------------- 
                  (x3)                 (x2)   


 Bridge  

G------------------------------------------- 
D------------------------------------------- 
A----7--0h7--0h7--0h7--7--7----------------- 
E------------------------------------------- 
                                       (x4) 

G------------------------------------------- 
D------------------------------------------- 
A----77-77-77--777----99-99-99--555--------- 
E------------------------------------------- 
                                       (x4) 



	  

Full key step upFull key step up
Half key step upHalf key step up
Half key step downHalf key step down
Full key step downFull key step down
Search Paypal
auto scroll beats size up size down change color hide chords drawings
tab show chords e-chords YouTube Clip e-chords hide all tabs e-chords go to top tab