Newsboys

home > Newsboys

Deep End Bass Tab

Newsboys

Difficulty: nolevelnolevel

by vasodebarro

tuner correct add songbook print version text version save to e-mail
chordsukulelecavacokeyboardtabbassdrumsharmonicsflute Guitar Pro
chords

Deep End

Year: 1998 - Album: Step Up To The Microphone

  		 Intro: 2x                                 end with  
G----------------------------------------   ------  
B--2-3-4-5---0-----2-3-4-5------0--------   ------  
A--------------3-------------------3-2-3-   --5---  
E----------3----------------3------------   ------  
   

  Verse (after guitar)  
G-------------------------------------------------------  
B-------------------------------------------------------  
A||:-3-3---3-3---3-3---3-3-4-5-5---5-5---5-5---5-5-4-:||  
E-------------------------------------------------------  

  Chorus                                    end with  
G----------------------------------------   -----------------  
B--2-3-4-5---0-----2-3-4-5------0--------   --0----------0-3-  
A--------------3-------------------3-2-3-   ----0--0-2-3-----  
E----------3----------------3------------   -----------------  
   

  Verse  
G---7-7-7-7-7-7-7-6-5--------------------------------------------------------  
B----------------------------------------------------------------------------  
A---------------------||:-3-3---3-3---3-3---3-3-4-5-5---5-5---5-5---5-5-4-:||  
E----------------------------------------------------------------------------  

  Bridge      play Chorus  
G-----------------------  
B-------------2-3-4-5---  
A-0-0-2-2-4-4-----------  
E-----------------------  

  End  
G---------------------------------- ---  
B------------3---5---3-3-3--5---7-- -5-  
A-----3-3-3------------------------ ---  
E---------------------------------- --- 

	  

Search Paypal
auto scroll beats size up size down change color hide chords drawings
tab show chords e-chords YouTube Clip e-chords hide all tabs e-chords go to top tab