New Politics

Everywhere I Go

New Politics

bass

by  ADALGOMES

save to print version add songbook text version e-mail correct tuner
chordsukulelecavacokeyboardtabbassdrumsharmonicaflute Guitar Pro
close

there isn't a video lesson for this song

chords

Everywhere I Go

	  		
It's not a really good song xD but, here we go. 
a lot of times(intro, verse, Chorus) 
G|-----------------|-----------------|-----------------|-----------------| 
D|-----------------|-----------------|-----------------|-----------------| 
A|-7---7---7---7---|-6---6---6---6---|-4---4---4---4---|-----------------| 
E|-----------------|-----------------|-----------------|-7---7---7---7---| 

G|-----------------|-----------------|-----------------|-----------------| 
D|-----------------|-----------------|-----------------|-----------------| 
A|-----------------|-----------------|-----------------|-----------------| 
E|-5---5---5---5---|-5---5---5---5---|-7---7---7---7---|-7---7---7---7---| 

before Chorus 
G|-----------------|-----------------|-----------------|-----------------| 
D|-----------------|-----------------|-----------------|-----------------| 
A|-----------------|-----------------|-----------------|-----------------| 
E|-5---5---5---5---|-5---5---5---5---|-7---7---7---7---|-7---7---7---7---| 

G|-----------------|-----------------|-----------------|-----------------| 
D|-----------------|-----------------|-----------------|-----------------| 
A|-7---7---7---7---|-6---6---6---6---|-4---4---4---4---|-----------------| 
E|-----------------|-----------------|-----------------|-7---7---7---7---| 
		  

See also:

bass New Politics - Everywhere I Go
e-chords

Other versions:

bass New Politics - Everywhere I Go
auto scroll beats size up size down change color hide chords drawings
tab show chords e-chords YouTube Clip e-chords hide all tabs e-chords go to top tab

share