Nelly Furtado

All Good Things

Nelly Furtado

bass Advanced advanced

by  P!ATD

save to print version add songbook text version e-mail correct tuner
chordsukulelecavacokeyboardtabbassdrumsharmonicaflute Guitar Pro
close

there isn't a video lesson for this song

chords

All Good Things

Year: 2006 - Album: Loose

	  		Key pattern for all song 

--------------------------------| 
--------------------------------| 
--------------------------------| 
5-------8-------3-------1-------| 

1.0  

Honestly what will become of me 

----------------| 
----------------| 
----------------| 
5-------8-------| 

don't like reality 

----------------| 
----------------| 
----------------| 
--------3-------| 

It's way too clear to me 

----------------| 
----------------| 
----------------| 
--------1-------| 

But really life is daily 

----------------| 
----------------| 
----------------| 
5-------8-------| 

We are what we don't see 

----------------| 
----------------| 
----------------| 
--------3-------| 

Missed everything daydreaming 

----------------| 
----------------| 
----------------| 
--------1-------| 

2.0  

Flames to dust 

----------------| 
----------------| 
----------------| 
8---------------| 

Lovers to friends 

----------------| 
----------------| 
----------------| 
3---------------| 

Why do all good things come to an end 

----------------| 
----------------| 
----------------| 
1-------5-------| 

Flames to dust 

----------------| 
----------------| 
----------------| 
8---------------| 

Lovers to friends 

----------------| 
----------------| 
----------------| 
3---------------| 

Why do all good things come to an end 

----------------| 
----------------| 
----------------| 
1-------5-------| 

come to an end come to an 

----------------| 
----------------| 
----------------| 
8-------3-------| 

Why do all good things come to end? 

----------------| 
----------------| 
----------------| 
1-------5-------| 
           C            G 
come to an end come to an 

----------------| 
----------------| 
----------------| 
8-------3-------| 

Why do all good things come to an end? 

----------------| 
----------------| 
----------------| 
1-------5-------| 
		  

Full key step upFull key step up
Half key step upHalf key step up
Half key step downHalf key step down
Full key step downFull key step down
hide glossary

See also:

bass Nelly Furtado - Do It bass Nelly Furtado - All Good Things
e-chords

Other versions:

bass Nelly Furtado - All Good Things
auto scroll beats size up size down change color hide chords drawings
tab show chords e-chords YouTube Clip e-chords hide all tabs e-chords go to top tab

share