Nancy Sinatra

Vagabond Shoes Bass Tab

Nancy Sinatra

Difficulty: nolevelnolevel

by abelamin

tuner correct add songbook print version text version save to e-mail
chordsukulelecavacokeyboardtabbassdrumsharmonicsflute Guitar Pro
close

there isn't a video lesson for this song

chords

Vagabond Shoes

  		Tabbed by: 6METAL6BASSIST6 
E-mail: [email protected] 

Tuning: EADG 

G|------------------2---5-4---4-------------------------------------------------------------------| 
D|2-----4-----5-----------------------1-----4-----------------------------2-----------------2-----| 
A|------------------------------2---------------2-------------2---------2-------2-----0---x-------| 
E|------------------------------------------------0-----4-----------0-----------------------------| 

G|----------------------------2-----4-------------------------------------------------------------| 
D|------------------6-----5-----------------0---1-2-----0-----------------------------------------| 
A|3-----1---------------------------------2-------------------3-----------3---------2-----2-------| 
E|------------4-----------------------------------------------------3-----------------------------| 

0:16 

G|------------------2---5-4-----------------------------------------------------------------------| 
D|2-----4-----5-----------------------1-----4-----------------------------2-----------------------| 
A|------------------------------2---------------2-------------2---------2-------2-----0-----0---0-| 
E|------------------------------------------------0-----4-----------0-----------------------------| 

G|------------------2-----------------4-----------| 
D|------------2-----------2-----5---------5-2-----| 
A|0-----3-----------------------------------------| 
E|------------------------------------------------| 

G|------------------------------------------------------------------------------------------------| 
D|------------------------------------------------------------------------------2---------2-----0-| 
A|3---------2-------2-----3---------2-------2-----3-----2-----1-----0-----------------2-----------| 
E|------3-----------------------3---------------------------------------3-0-----------------------| 

0:35 

G|------------------2---5-4---4-------------------------------------------------------------------| 
D|2-----4-----5-----------------------1-----4-----------------------------2-----------------2-----| 
A|------------------------------2---------------2-------------2---------2-------2-----0---0-------| 
E|------------------------------------------------0-----4-----------0-----------------------------| 

G|------------------------------------------------------------------------------------------------| 
D|------------------------------------------------2-----0-----------------------------------------| 
A|3-----------------------------------------------------------3-----------3---------2-----2-----2-| 
E|------------4-----------3---2-----3-------------------------------3-----------------------------| 

0:51 

G|------------------2---5-4---4-------------------------------------------------------------------| 
D|2-----4-----5-----------------------1-----4-----------------------------2-----------------2-----| 
A|------------------------------2---------------2-------------2---------2-------2-----0---x-------| 
E|------------------------------------------------0-----4-----------0-----------------------------| 

G|------------------------------------------------| 
D|----------------------------------------2-------| 
A|0-----------0-------------------------------2---| 
E|------------------------0-----------------------| 

G|------------------------------------------------------------------------------------------------| 
D|------------------------------------------------------------------------------------------------| 
A|3---------2-------------3---------2-----------2-3-----2-----1-----0-----------------------------| 
E|----------------------------------------------------------------------3-0---------------0-0-----| 

1:11 

G|----------------------5-4-----------------------------------------------------------------------| 
D|------4-----5-----5-----------------1-----4-----------------------------2-----------------2-----| 
A|------------------------------2---------------2-------------2---------x-------2-----0---0-----0-| 
E|------------------------------------------------0-----4-----------0-----------------------------| 

G|----------------------------2-----4-------------------------------------------------------------| 
D|------------------6-----5-----------------0---1-2-----0---------------------------------------0-| 
A|3-----1---------------------------------2-------------------3-----------3---------2-----2-------| 
E|------------4-----------------------------------------------------3-----------------------------| 

1:26 

G|------------------2---5-4-----------------------------------------------------------------------| 
D|2-----4-----5-----------------------1-----4-----------------------------2-----------------2-----| 
A|------------------------------2---------------2-------------2---------2-------2-----0---0-------| 
E|------------------------------------------------0-----4-----------0-----------------------------| 

G|------------------2-----------------4-----------| 
D|------------2-----------2-----5---------5-2-----| 
A|0-----3-----------------------------------------| 
E|------------------------------------------------| 

G|------------------------------------------------------------------------------------------------| 
D|------------------------------------------------------------------------------2---------2-----0-| 
A|3---------2-------2-----3---------2-------2-----3-----2-----1-----0-----------------2-----------| 
E|------3-----------------------3---------------------------------------3-0-----------------------| 

1:45 

G|------------------2---5-4---4-------------------------------------------------------------------| 
D|2-----4-----5-----------------------1-----4-----------------------------2-----------------2-----| 
A|------------------------------2---------------2-----------------------2-------2-----0---0-----0-| 
E|------------------------------------------------0-----2-----3-----4-----------------------------| 

G|------------------------------------------------------| 
D|------------------------------------------------------| fades out here. 
A|3-----1-----------6-----------------------0---2-3-----| 
E|------------4-----------3-----2---3-----3-------------| 

************************************ 
| x   Dead note 
************************************ 
	  

auto scroll beats size up size down change color hide chords drawings
tab show chords e-chords YouTube Clip e-chords hide all tabs e-chords go to top tab

share with facebook

Search Paypal