My Chemical Romance

home > My Chemical Romanc...

Welcome to the black parade Bass Tab

My Chemical Romance

Difficulty: IntermediateIntermediate

by P%21ATD

tuner correct add songbook print version text version save to e-mail
chordsukulelecavacokeyboardtabbassdrumsharmonicsflute Guitar Pro
chords

Welcome to the black parade

Year: 2006 - Album: The Black Parade

  		Intro 0.38 
|-------------------------------------------| 
|-12/-17---16---14-----------------------12-| X2 
|--------------------17---15---14---12------| 
|-------------------------------------------| 

|-------------------------------| 
|-------------------------------| X2 
|-------------5---3---2---0---5-| 
|-3---2---0---------------------| 

|-----------------------------------| 
|-----------------------------------| 
|-------------5---3---2---0---5-----| 
|-3---2---0-----------------------3-| 

Verse 
|---------------------------------------------------------------| 
|---------------------------------------------------------------| 
|----------------------------55555555-333333333333-555555555555-| 
|-33333333-22222222-00000000------------------------------------| 

|-----------------------------------------------------------------------| 
|-----------------------------------------------------------------------| X2 
|----------------------------3333333333333333----------5555555555555555-| 
|-33333333-22222222-11111111------------------33333333------------------| 

Chorus 
|---------------------------------------------------------------| 
|---------------------------------------------------------------| X2 
|----------------------------55555555-333333333333-555555555555-| 
|-33333333-22222222-00000000------------------------------------| 

Verse 
|-----------------------------------------------------------------------| 
|-----------------------------------------------------------------------| X2 
|----------------------------3333333333333333----------5555555555555555-| 
|-33333333-22222222-11111111------------------33333333------------------| 

Chorus 
|---------------------------------------------------------------| 
|---------------------------------------------------------------| 
|----------------------------55555555-333333333333-555555555555-| 
|-33333333-22222222-00000000------------------------------------| 

|---------------------------------------------------------------------| 
|---------------------------------------------------------------------| 
|----------------------------55555555-333333333333-555555555555-5---3-| 
|-33333333-22222222-00000000------------------------------------------| 

Bridge 
|-------------------| 
|-------------------| X2 
|-22222222----------| 
|----------00000000-| 

|--------------------------| 
|--------------------------| 
|-3333333333333333-6-5-3-2-| 
|--------------------------| 

|-----------------| 
|-----------------| X2 
|-------5-3---3-5-| 
|-3-2-0-----3-----| 

|-----------------------------------| 
|-----------------------------------| 
|---------5-------------------------| 
|-5-4-2-0---5-000000000000000000000-| 

Chorus 
|-------------------------------------------------------------------| 
|-------------------------------------------------------------------| X2 
|-------------------------------------55555555555555----------------| 
|-55555555-44444444-22222222-00000000----------------00000000000000-| 

Outro 
|----------------| 
|----------------| X2 
|---------5------| 
|-5-4-2-0------0-| 

|----| 
|----| 
|----| 
|-5~-| 

	  

Search Paypal
auto scroll beats size up size down change color hide chords drawings
tab show chords e-chords YouTube Clip e-chords hide all tabs e-chords go to top tab