My Chemical Romance

home > My Chemical Romanc...

Kiss The Ring Bass Tab

My Chemical Romance

Difficulty: nolevelnolevel

by aman%5Fclaudino

tuner correct add songbook print version text version save to e-mail
chordsukulelecavacokeyboardtabbassdrumsharmonicsflute Guitar Pro
chords

Kiss The Ring

  		
Intro & Verse 
only guitar first half 
G|--------| 
D|--------|  
A|--------| (only intro) 
E|-33-22--|  

G|-----------------------------------------------------|  
D|-----------------------------------------------------|  
A|-----------------------------------------------------|  
E|-8-88-88-88-68-88-88-88-84-44-44-44-43-33-32-22-2----| 

G|-------------------------------------------| 
D|-------------------------------------------| 
A|----------6----------8---------------------| 
E|-8-88-88-8--8-88-88-8--4-44-44-44-43~-2~---| 

x3 

Chorus 
"Cause the king is gone" 
G|-----------------------------------------------------------------| 
D|-----------------------------------------------------------------| 
A|-----------1-3-6-33333333-3-113-----------1-3-6-33333333-66-66---| 
E|-11111111-1---------------------11111111-1-----------------------| 

G|----------------------------------------------------------------------| 
D|----------------------------------------------------------------------| 
A|-----------1-3-6-33333333-3-113-----------3-6-6-------------33-66=88--| 
E|-11111111-1---------------------11111111-1------33-33-33-36-----------| 

G|------------------| 
D|------------------| 
A|-----------66-88--|x3 
E|-66-678-88--------| 


Verse 

G|-----------| 
D|-----------| 
A|-----------| 
E|-66-678-88-| 

G|-----------------------------------------------------|  
D|-----------------------------------------------------|  
A|-------------------------6-66-66-66-65-55-55-55-5----|  
E|-8-88-88-88-68-88-88-88-8----------------------------| 

G|-------------------------------------------| 
D|-------------------------------------------| 
A|----------6----------8---------------------| 
E|-8-88-88-8--8-88-88-8--4-44-44-44-43~-2~---| 

G|-----------------------------------------------------|  
D|-----------------------------------------------------|  
A|-----------------------------------------------------|  
E|-8-88-88-88-68-88-88-88-84-44-44-44-43-33-32-22-2----| 

G|-------------------------------------------| 
D|-------------------------------------------| 
A|----------6----------8---------------------| 
E|-8-88-88-8--8-88-88-8--4-44-44-44-43~-2~---| 

Chorus 
G|-----------------------------------------------------------------| 
D|-----------------------------------------------------------------| 
A|-----------1-3-6-33333333-3-113-----------1-3-6-33333333-66-66---| 
E|-11111111-1---------------------11111111-1-----------------------| 

Bridge 
(10's can be either four normal ones of hella fast ones like the guitar) 
G|-----------------------| 
D|-----------------------| 
A|-88888888-10-10-10-10--| 
E|-----------------------| 

G|------------------------------------| 
D|------------------------------------| 
A|------------------------------------|x2 
E|-88-------88-------88-------1-2-3-6-| 

"Hail, Hail, cause the king is gone" 
G|------------------------------------| 
D|------------------------------------| 
A|------------------------------------| 
E|-88888886-88888886-88888888-1-2-3-6-| 

G|------------------------------------| 
D|------------------------------------| 
A|------------------------------------|   X=11  Y=13 
E|-88888888-XXXXXXXX-YYYYYYYY-1-2-3-6-| 

G|------------------| 
D|----11-33---------| 
A|-33-------11-123--|x4 
E|------------------| 

Chorus 
G|-----------------------------------------------------------------| 
D|-----------------------------------------------------------------| 
A|-----------1-3-6-33333333-3-113-----------1-3-6-33333333-66-66---| 
E|-11111111-1---------------------11111111-1-----------------------| 

G|------------------------------------------------| 
D|------------------------------------------------| 
A|-----------1-3-6-33333333-3-113-----------3-6-6-| 
E|-11111111-1---------------------11111111-1------| 

G|--------------------------------| 
D|--------------------------------| 
A|-1010-1010-10-9-8-6-10-9-8-6----| 
E|-----------------------------8--| 


************************************ 

| ~   Hold note 

************************************ 
	  

Search Paypal
auto scroll beats size up size down change color hide chords drawings
tab show chords e-chords YouTube Clip e-chords hide all tabs e-chords go to top tab