My Chemical Romance

home > My Chemical Romanc...

Demolition Bass Tab

My Chemical Romance

Difficulty: nolevelnolevel

by gustsilva

tuner correct add songbook print version text version save to e-mail
chordsukulelecavacokeyboardtabbassdrumsharmonicsflute Guitar Pro
chords

Demolition

  		G|-------------------------|  
D|-------------------------|  
A|-------------5555--------|  
E|3333--7777---------3333--|  

G|----------------------------------------------------------------------|  
D|----------------------------------------------------------------------|  
A|--------------------------------------------------------5(x4)---------|  
E|4(x8)--6(x8)--7(x8)--8(x4)--6(x4)--4(x8)--6(x8)--7(x8)---------3(x4)--| 

G|------------------------------------------------------------------|  
D|------------------------------------------------------------------|  
A|3-333----------------------2222--3-333----------------3333--------|  
E|-------1-111--4-444--3333---------------1-111--4-444--------3333--|  

G|-----------------------------------------------------------------|  
D|-----------------------------------------------------------------|  
A|-----------------------------------------------------------------|  
E|4(x8)--6(x8)--7(x8)--8(x4)--6(x4)---4(x8)--6(x8)--7(x8)--88--66--| 

G|---------------------------------|  
D|---------------------------------|  
A|---------------------------------|  
E|88--44--66--777-777--44-422-233--|  

G|-----------------------------------|  
D|-----------------------------------|  
A|-----------------------------------|  
E|4(x8)--6(x8)--7(x8)--8(x4)--6(x4)--|  

G|----------------------|  
D|----------------------|  
A|--------3(x8)---------|  
E|4(x16)---------3(x8)--|  

G|--------------------------------------------------------------|  
D|--------------------------------------------------------------|  
A|--------------------------------------------------------------|  
E|4(x8)--6(x6)--44--3(x8)--88--66--4(x8)--6(x8)--7(x8)--88--66--|  

G|------------------------------------------------------------------------|  
D|------------------------------------------------------------------------|  
A|------------------------------------------------------------------------|  
E|4(x8)--6(x6)--44--3(x8)--8(x4)--6(x4)--4(x8)--6(x8)--7(x8)--8(x4)--6(x4)| 
	  

Search Paypal
auto scroll beats size up size down change color hide chords drawings
tab show chords e-chords YouTube Clip e-chords hide all tabs e-chords go to top tab