My Chemical Romance

home > My Chemical Romanc...

All I Want For Christmas Bass Tab

My Chemical Romance

Difficulty: nolevelnolevel

by gustsilva

tuner correct add songbook print version text version save to e-mail
chordsukulelecavacokeyboardtabbassdrumsharmonicsflute Guitar Pro
chords

All I Want For Christmas

  		


verse 1 
G|-------------------------------------|----------------------------------------|| 
D|-------------------------------------|----------------------------------------|| 
A|-------------------33333333-66666666-|-------------------33333333-6~6~6~66666-|| 
E|--3333333333333333-------------------|--3333333333333333----------------------|| 

Chorus 
G|-----------------------------------------------------------------------------------------------|| 
D|-----------------------------------------------------------------------------------------------|| 
A|------------------------------6-6-5-5-5-5-7-7-7-7—--------5-5-5-5-------------------------5555-|| 
E|--3-3-3-3-3-3-2-2-0-0-0-0-0-0---------------------5-5-5-5---------3-3-3-3-0-0-0-0-5-5-5-5------|| 
  
verse 2  
G|------------------------------------------------------------------|| 
D|------------------------------------------------------------------|| 
A|----------------------------------3-3-3-3-3-3-3-3-6-6-6-6-6-6-6-6-|| 
E|--3-3-3-3-3-3-3-3-3-3-3-3-3-3-3-3---------------------------------|| 

G|------------------------------------------------------------|| 
D|------------------------------------------------------------|| 
A|--------------------------------3-3-3-3-3-3-3-3-6~6~6~66666-|| 
E|3-3-3-3-3-3-3-3-3-3-3-3-3-3-3-3-----------------------------|| 

Chorus 
G|-----------------------------------------------------------------------------------------------|| 
D|-----------------------------------------------------------------------------------------------|| 
A|------------------------------6-6-5-5-5-5-7-7-7-7—--------5-5-5-5-------------------------5555-|| 
E|--3-3-3-3-3-3-2-2-0-0-0-0-0-0---------------------5-5-5-5---------3-3-3-3-0-0-0-0-5-5-5-5------|| 

Bridge 
G|---------------------------------|--------------------------------|| 
D|----------7----------------------|---------7----------------------|| 
A|----6-7-9---10-9-10--------------|----6-7-9---10-9-10-------------|| 
E|--7-----------------0/12~--0/12~-|--7-----------------0/12~--0~~~-|| 

G|-----------------------------------------------------------|| 
D|-----------------------------------------------------------|| 
A|--6-6-6-6-6-6-6-6-5-5-5-5-7-7-7-7-----------------55555556-|| 
E|----------------------------------5-5-5-5-5-5-5-5----------|| 

\/ Play softly (Palm Muste if using a pick) 
G|-------------------------------------|| 
D|-------------------------------------|| 
A|-------------------33333333-666666---|| 
E|--3333333333333333-------------------|| 

G|-------------------------------------------------------------|| 
D|-------------------------------------------------------------|| 
A|--------------2-------------6-5-5-5-5-7-7-7-7—--------5~-5-5-|| 
E|--3-3-3-3-3-3---0-0-0-0-0-0-------------------5-5-5-5--------|| 

Outro 
G|----------------------------------|| 
D|----------------------------------|| 
A|--------------------------5-5-5-5-|| 
E|--3-3-3-3-0-0-0-0-5-5-5-5---------|| 

G|----------------------------------|| 
D|----------------------------------|| 
A|--------------------------5-5-5-5-|| 
E|--3-3-3-3-0-0-0-0-5-5-5-5---------|| 

G|----------------------------------|| 
D|----------------------------------|| 
A|--------------------------5-5-5-5-|| 
E|--3-3-3-3-0-0-0-0-5-5-5-5---------|| 

G|----------------------------------|| 
D|----------------------------------|| 
A|--------------------------5-5-5-5-|| 
E|--3-3-3-3-0-0-0-0-5-5-5-5---------|| 

G|----------------------------------|| 
D|----------------------------------|| 
A|--------------------------5-5-5-5-|| 
E|--3-3-3-3-0-0-0-0-5-5-5-5---------|| 

G|----------------------------------|| 
D|----------------------------------|| 
A|--------------------------5-5-5-5-|| 
E|--3-3-3-3-0-0-0-0-5-5-5-5---------|| 

G|----------------------------------|| 
D|----------------------------------|| 
A|--------------------------5-5-5-5-|| 
E|--3-3-3-3-0-0-0-0-5-5-5-5---------|| 

G|----------------------------------|| 
D|----------------------------------|| 
A|--------------------------5-5-5-5-|| 
E|--3-3-3-3-0-0-0-0-5-5-5-5---------|| 
	  

Search Paypal
auto scroll beats size up size down change color hide chords drawings
tab show chords e-chords YouTube Clip e-chords hide all tabs e-chords go to top tab