Mozart

The Little Star

Mozart

bass

by  ALYSLIMA

save to print version add songbook text version e-mail correct tuner
chordsukulelecavacokeyboardtabbassdrumsharmonicaflute Guitar Pro
close

there isn't a video lesson for this song

chords

The Little Star

	  		
This song is now used to sing ABC, amd things like that.... 

G|----------------4-4-----------------------------------------------------------| 
D|----------7-7--------7-7---5-5---4-4------------------------------------------| 
A|----5-5-------------------------------7-7--5-5--------------------------------| 
E|------------------------------------------------------------------------------| 

G|-------------------------------------------------------------------------------| 
D|----7-7--5-5--4-4--------7-7--5-5--4-4-4---------------------------------------| 
A|-------------------7-7--------------------7------------------------------------| 
E|-------------------------------------------------------------------------------| 

G|----------------4-4-----------------------------------------------------------| 
D|----------7-7--------7-7---5-5---4-4------------------------------------------| 
A|----5-5-------------------------------7-7--5-5--------------------------------| 
E|------------------------------------------------------------------------------| 
		  

See also:

bass Mozart - The Little Star
e-chords

Other versions:

bass Mozart - The Little Star
auto scroll beats size up size down change color hide chords drawings
tab show chords e-chords YouTube Clip e-chords hide all tabs e-chords go to top tab

share